  0
SECTION
  2
HEADER
  9
$ACADVER
  1
AC1027
  9
$ACADMAINTVER
 70
     8
  9
$DWGCODEPAGE
  3
ANSI_1252
  9
$REQUIREDVERSIONS
160
                 0
  9
$INSBASE
 10
0.0
 20
0.0
 30
0.0
  9
$EXTMIN
 10
1.000000000000000E+20
 20
1.000000000000000E+20
 30
1.000000000000000E+20
  9
$EXTMAX
 10
-1.000000000000000E+20
 20
-1.000000000000000E+20
 30
-1.000000000000000E+20
  9
$LIMMIN
 10
0.0
 20
0.0
  9
$LIMMAX
 10
12.0
 20
9.0
  9
$ORTHOMODE
 70
     0
  9
$REGENMODE
 70
     1
  9
$FILLMODE
 70
     1
  9
$QTEXTMODE
 70
     0
  9
$MIRRTEXT
 70
     1
  9
$LTSCALE
 40
1.0
  9
$ATTMODE
 70
     1
  9
$TEXTSIZE
 40
0.2
  9
$TRACEWID
 40
0.05
  9
$TEXTSTYLE
  7
Standard
  9
$CLAYER
  8
0
  9
$CELTYPE
  6
ByLayer
  9
$CECOLOR
 62
    18
  9
$CELTSCALE
 40
1.0
  9
$DISPSILH
 70
     0
  9
$DIMSCALE
 40
1.0
  9
$DIMASZ
 40
2.5
  9
$DIMEXO
 40
0.625
  9
$DIMDLI
 40
0.38
  9
$DIMRND
 40
0.0
  9
$DIMDLE
 40
0.0
  9
$DIMEXE
 40
1.25
  9
$DIMTP
 40
0.0
  9
$DIMTM
 40
0.0
  9
$DIMTXT
 40
2.5
  9
$DIMCEN
 40
0.09
  9
$DIMTSZ
 40
0.0
  9
$DIMTOL
 70
     0
  9
$DIMLIM
 70
     0
  9
$DIMTIH
 70
     1
  9
$DIMTOH
 70
     1
  9
$DIMSE1
 70
     0
  9
$DIMSE2
 70
     0
  9
$DIMTAD
 70
     0
  9
$DIMZIN
 70
     8
  9
$DIMBLK
  1

  9
$DIMASO
 70
     1
  9
$DIMSHO
 70
     1
  9
$DIMPOST
  1

  9
$DIMAPOST
  1

  9
$DIMALT
 70
     0
  9
$DIMALTD
 70
     2
  9
$DIMALTF
 40
25.4
  9
$DIMLFAC
 40
1.0
  9
$DIMTOFL
 70
     0
  9
$DIMTVP
 40
0.0
  9
$DIMTIX
 70
     0
  9
$DIMSOXD
 70
     0
  9
$DIMSAH
 70
     0
  9
$DIMBLK1
  1

  9
$DIMBLK2
  1

  9
$DIMSTYLE
  2
Standard
  9
$DIMCLRD
 70
    18
  9
$DIMCLRE
 70
    18
  9
$DIMCLRT
 70
    18
  9
$DIMTFAC
 40
1.0
  9
$DIMGAP
 40
0.625
  9
$DIMJUST
 70
     0
  9
$DIMSD1
 70
     0
  9
$DIMSD2
 70
     0
  9
$DIMTOLJ
 70
     1
  9
$DIMTZIN
 70
     0
  9
$DIMALTZ
 70
     0
  9
$DIMALTTZ
 70
     0
  9
$DIMUPT
 70
     0
  9
$DIMDEC
 70
     4
  9
$DIMTDEC
 70
     4
  9
$DIMALTU
 70
     2
  9
$DIMALTTD
 70
     2
  9
$DIMTXSTY
  7
Standard
  9
$DIMAUNIT
 70
     0
  9
$DIMADEC
 70
     0
  9
$DIMALTRND
 40
0.0
  9
$DIMAZIN
 70
     2
  9
$DIMDSEP
 70
    46
  9
$DIMATFIT
 70
     3
  9
$DIMFRAC
 70
     0
  9
$DIMLDRBLK
  1

  9
$DIMLUNIT
 70
     2
  9
$DIMLWD
 70
    -2
  9
$DIMLWE
 70
    -2
  9
$DIMTMOVE
 70
     0
  9
$DIMFXL
 40
1.0
  9
$DIMFXLON
 70
     0
  9
$DIMJOGANG
 40
0.7853981633974483
  9
$DIMTFILL
 70
     0
  9
$DIMTFILLCLR
 70
     0
  9
$DIMARCSYM
 70
     0
  9
$DIMLTYPE
  6

  9
$DIMLTEX1
  6

  9
$DIMLTEX2
  6

  9
$DIMTXTDIRECTION
 70
     0
  9
$LUNITS
 70
     2
  9
$LUPREC
 70
     4
  9
$SKETCHINC
 40
0.1
  9
$FILLETRAD
 40
0.5
  9
$AUNITS
 70
     0
  9
$AUPREC
 70
     0
  9
$MENU
  1
.
  9
$ELEVATION
 40
0.0
  9
$PELEVATION
 40
0.0
  9
$THICKNESS
 40
0.0
  9
$LIMCHECK
 70
     0
  9
$CHAMFERA
 40
0.0
  9
$CHAMFERB
 40
0.0
  9
$CHAMFERC
 40
0.0
  9
$CHAMFERD
 40
0.0
  9
$SKPOLY
 70
     0
  9
$TDCREATE
 40
2457339.995511215
  9
$TDUCREATE
 40
2457339.953844549
  9
$TDUPDATE
 40
2457339.995511759
  9
$TDUUPDATE
 40
2457339.953845093
  9
$TDINDWG
 40
0.0000000116
  9
$TDUSRTIMER
 40
0.0000000116
  9
$USRTIMER
 70
     1
  9
$ANGBASE
 50
0.0
  9
$ANGDIR
 70
     0
  9
$PDMODE
 70
     0
  9
$PDSIZE
 40
0.0
  9
$PLINEWID
 40
0.0
  9
$SPLFRAME
 70
     0
  9
$SPLINETYPE
 70
     6
  9
$SPLINESEGS
 70
     8
  9
$HANDSEED
  5
461
  9
$SURFTAB1
 70
     6
  9
$SURFTAB2
 70
     6
  9
$SURFTYPE
 70
     6
  9
$SURFU
 70
     6
  9
$SURFV
 70
     6
  9
$UCSBASE
  2

  9
$UCSNAME
  2

  9
$UCSORG
 10
0.0
 20
0.0
 30
0.0
  9
$UCSXDIR
 10
1.0
 20
0.0
 30
0.0
  9
$UCSYDIR
 10
0.0
 20
1.0
 30
0.0
  9
$UCSORTHOREF
  2

  9
$UCSORTHOVIEW
 70
     0
  9
$UCSORGTOP
 10
0.0
 20
0.0
 30
0.0
  9
$UCSORGBOTTOM
 10
0.0
 20
0.0
 30
0.0
  9
$UCSORGLEFT
 10
0.0
 20
0.0
 30
0.0
  9
$UCSORGRIGHT
 10
0.0
 20
0.0
 30
0.0
  9
$UCSORGFRONT
 10
0.0
 20
0.0
 30
0.0
  9
$UCSORGBACK
 10
0.0
 20
0.0
 30
0.0
  9
$PUCSBASE
  2

  9
$PUCSNAME
  2

  9
$PUCSORG
 10
0.0
 20
0.0
 30
0.0
  9
$PUCSXDIR
 10
1.0
 20
0.0
 30
0.0
  9
$PUCSYDIR
 10
0.0
 20
1.0
 30
0.0
  9
$PUCSORTHOREF
  2

  9
$PUCSORTHOVIEW
 70
     0
  9
$PUCSORGTOP
 10
0.0
 20
0.0
 30
0.0
  9
$PUCSORGBOTTOM
 10
0.0
 20
0.0
 30
0.0
  9
$PUCSORGLEFT
 10
0.0
 20
0.0
 30
0.0
  9
$PUCSORGRIGHT
 10
0.0
 20
0.0
 30
0.0
  9
$PUCSORGFRONT
 10
0.0
 20
0.0
 30
0.0
  9
$PUCSORGBACK
 10
0.0
 20
0.0
 30
0.0
  9
$USERI1
 70
     0
  9
$USERI2
 70
     0
  9
$USERI3
 70
     0
  9
$USERI4
 70
     0
  9
$USERI5
 70
     0
  9
$USERR1
 40
0.0
  9
$USERR2
 40
0.0
  9
$USERR3
 40
0.0
  9
$USERR4
 40
0.0
  9
$USERR5
 40
0.0
  9
$WORLDVIEW
 70
     1
  9
$SHADEDGE
 70
     3
  9
$SHADEDIF
 70
    70
  9
$TILEMODE
 70
     1
  9
$MAXACTVP
 70
     2
  9
$PINSBASE
 10
0.0
 20
0.0
 30
0.0
  9
$PLIMCHECK
 70
     0
  9
$PEXTMIN
 10
1.000000000000000E+20
 20
1.000000000000000E+20
 30
1.000000000000000E+20
  9
$PEXTMAX
 10
-1.000000000000000E+20
 20
-1.000000000000000E+20
 30
-1.000000000000000E+20
  9
$PLIMMIN
 10
0.0
 20
0.0
  9
$PLIMMAX
 10
12.0
 20
9.0
  9
$UNITMODE
 70
     0
  9
$VISRETAIN
 70
     1
  9
$PLINEGEN
 70
     0
  9
$PSLTSCALE
 70
     1
  9
$TREEDEPTH
 70
  3020
  9
$CMLSTYLE
  2
Standard
  9
$CMLJUST
 70
     0
  9
$CMLSCALE
 40
1.0
  9
$PROXYGRAPHICS
 70
     1
  9
$MEASUREMENT
 70
     1
  9
$CELWEIGHT
370
    -1
  9
$ENDCAPS
280
     0
  9
$JOINSTYLE
280
     0
  9
$LWDISPLAY
290
     0
  9
$INSUNITS
 70
     4
  9
$HYPERLINKBASE
  1

  9
$STYLESHEET
  1

  9
$XEDIT
290
     1
  9
$CEPSNTYPE
380
     0
  9
$PSTYLEMODE
290
     1
  9
$FINGERPRINTGUID
  2
{16CA12BB-CD52-498B-AABB-AF15E123EACB}
  9
$VERSIONGUID
  2
{FAEB1C32-E019-11D5-929B-00C0DF256EC4}
  9
$EXTNAMES
290
     1
  9
$PSVPSCALE
 40
0.0
  9
$OLESTARTUP
290
     0
  9
$SORTENTS
280
   127
  9
$INDEXCTL
280
     0
  9
$HIDETEXT
280
     1
  9
$XCLIPFRAME
280
     2
  9
$HALOGAP
280
     0
  9
$OBSCOLOR
 70
   257
  9
$OBSLTYPE
280
     0
  9
$INTERSECTIONDISPLAY
280
     0
  9
$INTERSECTIONCOLOR
 70
   257
  9
$DIMASSOC
280
     2
  9
$PROJECTNAME
  1

  9
$CAMERADISPLAY
290
     0
  9
$LENSLENGTH
 40
50.0
  9
$CAMERAHEIGHT
 40
0.0
  9
$STEPSPERSEC
 40
2.0
  9
$STEPSIZE
 40
6.0
  9
$3DDWFPREC
 40
2.0
  9
$PSOLWIDTH
 40
0.25
  9
$PSOLHEIGHT
 40
4.0
  9
$LOFTANG1
 40
1.570796326794897
  9
$LOFTANG2
 40
1.570796326794897
  9
$LOFTMAG1
 40
0.0
  9
$LOFTMAG2
 40
0.0
  9
$LOFTPARAM
 70
     7
  9
$LOFTNORMALS
280
     1
  9
$LATITUDE
 40
37.795
  9
$LONGITUDE
 40
-122.394
  9
$NORTHDIRECTION
 40
0.0
  9
$TIMEZONE
 70
 -8000
  9
$LIGHTGLYPHDISPLAY
280
     1
  9
$TILEMODELIGHTSYNCH
280
     1
  9
$CMATERIAL
347
3BE
  9
$SOLIDHIST
280
     0
  9
$SHOWHIST
280
     1
  9
$DWFFRAME
280
     2
  9
$DGNFRAME
280
     2
  9
$REALWORLDSCALE
290
     1
  9
$INTERFERECOLOR
 62
   256
  9
$CSHADOW
280
     0
  9
$SHADOWPLANELOCATION
 40
0.0
  0
ENDSEC
  0
SECTION
  2
CLASSES
  0
CLASS
  1
ACDBDICTIONARYWDFLT
  2
AcDbDictionaryWithDefault
  3
ObjectDBX Classes
 90
        0
 91
        4
280
     0
281
     0
  0
CLASS
  1
VISUALSTYLE
  2
AcDbVisualStyle
  3
ObjectDBX Classes
 90
     4095
 91
        4
280
     0
281
     0
  0
CLASS
  1
MATERIAL
  2
AcDbMaterial
  3
ObjectDBX Classes
 90
     1153
 91
        4
280
     0
281
     0
  0
CLASS
  1
SCALE
  2
AcDbScale
  3
ObjectDBX Classes
 90
     1153
 91
        4
280
     0
281
     0
  0
CLASS
  1
TABLESTYLE
  2
AcDbTableStyle
  3
ObjectDBX Classes
 90
     4095
 91
        4
280
     0
281
     0
  0
CLASS
  1
MLEADERSTYLE
  2
AcDbMLeaderStyle
  3
ACDB_MLEADERSTYLE_CLASS
 90
     4095
 91
        4
280
     0
281
     0
  0
CLASS
  1
SUN
  2
AcDbSun
  3
SCENEOE
 90
     1153
 91
        4
280
     0
281
     0
  0
CLASS
  1
DICTIONARYVAR
  2
AcDbDictionaryVar
  3
ObjectDBX Classes
 90
        0
 91
        4
280
     0
281
     0
  0
CLASS
  1
CELLSTYLEMAP
  2
AcDbCellStyleMap
  3
ObjectDBX Classes
 90
     1152
 91
        4
280
     0
281
     0
  0
ENDSEC
  0
SECTION
  2
TABLES
  0
TABLE
  2
VPORT
  5
383
330
0
100
AcDbSymbolTable
 70
     1
  0
VPORT
  5
3A3
330
383
100
AcDbSymbolTableRecord
100
AcDbViewportTableRecord
  2
*Active
 70
     0
 10
0.0
 20
0.0
 11
1.0
 21
1.0
 12
10.42990654205607
 22
4.5
 13
0.0
 23
0.0
 14
0.5
 24
0.5
 15
0.5
 25
0.5
 16
0.0
 26
0.0
 36
1.0
 17
0.0
 27
0.0
 37
0.0
 40
9.0
 41
1.972972972850329
 42
50.0
 43
0.0
 44
0.0
 50
0.0
 51
0.0
 71
     0
 72
   100
 73
     1
 74
     3
 75
     0
 76
     0
 77
     0
 78
     0
281
     0
 65
     1
110
0.0
120
0.0
130
0.0
111
1.0
121
0.0
131
0.0
112
0.0
122
1.0
132
0.0
 79
     0
146
0.0
 60
     3
 61
     5
292
     1
282
     1
141
0.0
142
0.0
 63
   250
361
3E7
  0
ENDTAB
  0
TABLE
  2
LTYPE
  5
380
330
0
100
AcDbSymbolTable
 70
    48
  0
LTYPE
  5
38E
330
380
100
AcDbSymbolTableRecord
100
AcDbLinetypeTableRecord
  2
ByBlock
 70
     0
  3

 72
    65
 73
     0
 40
0.0
  0
LTYPE
  5
38F
330
380
100
AcDbSymbolTableRecord
100
AcDbLinetypeTableRecord
  2
ByLayer
 70
     0
  3

 72
    65
 73
     0
 40
0.0
  0
LTYPE
  5
390
330
380
100
AcDbSymbolTableRecord
100
AcDbLinetypeTableRecord
  2
Continuous
 70
     0
  3
Solid line
 72
    65
 73
     0
 40
0.0
  0
LTYPE
  5
41B
330
380
100
AcDbSymbolTableRecord
100
AcDbLinetypeTableRecord
  2
ACAD_ISO02W100
 70
     0
  3
ISO dash __ __ __ __ __ __ __ __ __ __ __ __ __
 72
    65
 73
     2
 40
15.0
 49
12.0
 74
     0
 49
-3.0
 74
     0
  0
LTYPE
  5
41C
330
380
100
AcDbSymbolTableRecord
100
AcDbLinetypeTableRecord
  2
ACAD_ISO03W100
 70
     0
  3
ISO dash space __    __    __    __    __    __
 72
    65
 73
     2
 40
30.0
 49
12.0
 74
     0
 49
-18.0
 74
     0
  0
LTYPE
  5
41D
330
380
100
AcDbSymbolTableRecord
100
AcDbLinetypeTableRecord
  2
ACAD_ISO04W100
 70
     0
  3
ISO long-dash dot ____ . ____ . ____ . ____ . _
 72
    65
 73
     4
 40
30.0
 49
24.0
 74
     0
 49
-3.0
 74
     0
 49
0.0
 74
     0
 49
-3.0
 74
     0
  0
LTYPE
  5
41E
330
380
100
AcDbSymbolTableRecord
100
AcDbLinetypeTableRecord
  2
ACAD_ISO05W100
 70
     0
  3
ISO long-dash double-dot ____ .. ____ .. ____ . 
 72
    65
 73
     6
 40
33.0
 49
24.0
 74
     0
 49
-3.0
 74
     0
 49
0.0
 74
     0
 49
-3.0
 74
     0
 49
0.0
 74
     0
 49
-3.0
 74
     0
  0
LTYPE
  5
41F
330
380
100
AcDbSymbolTableRecord
100
AcDbLinetypeTableRecord
  2
ACAD_ISO06W100
 70
     0
  3
ISO long-dash triple-dot ____ ... ____ ... ____
 72
    65
 73
     8
 40
36.0
 49
24.0
 74
     0
 49
-3.0
 74
     0
 49
0.0
 74
     0
 49
-3.0
 74
     0
 49
0.0
 74
     0
 49
-3.0
 74
     0
 49
0.0
 74
     0
 49
-3.0
 74
     0
  0
LTYPE
  5
420
330
380
100
AcDbSymbolTableRecord
100
AcDbLinetypeTableRecord
  2
ACAD_ISO07W100
 70
     0
  3
ISO dot . . . . . . . . . . . . . . . . . . . . 
 72
    65
 73
     2
 40
3.0
 49
0.0
 74
     0
 49
-3.0
 74
     0
  0
LTYPE
  5
421
330
380
100
AcDbSymbolTableRecord
100
AcDbLinetypeTableRecord
  2
ACAD_ISO08W100
 70
     0
  3
ISO long-dash short-dash ____ __ ____ __ ____ _
 72
    65
 73
     4
 40
36.0
 49
24.0
 74
     0
 49
-3.0
 74
     0
 49
6.0
 74
     0
 49
-3.0
 74
     0
  0
LTYPE
  5
422
330
380
100
AcDbSymbolTableRecord
100
AcDbLinetypeTableRecord
  2
ACAD_ISO09W100
 70
     0
  3
ISO long-dash double-short-dash ____ __ __ ____
 72
    65
 73
     6
 40
45.0
 49
24.0
 74
     0
 49
-3.0
 74
     0
 49
6.0
 74
     0
 49
-3.0
 74
     0
 49
6.0
 74
     0
 49
-3.0
 74
     0
  0
LTYPE
  5
423
330
380
100
AcDbSymbolTableRecord
100
AcDbLinetypeTableRecord
  2
ACAD_ISO10W100
 70
     0
  3
ISO dash dot __ . __ . __ . __ . __ . __ . __ . 
 72
    65
 73
     4
 40
18.0
 49
12.0
 74
     0
 49
-3.0
 74
     0
 49
0.0
 74
     0
 49
-3.0
 74
     0
  0
LTYPE
  5
424
330
380
100
AcDbSymbolTableRecord
100
AcDbLinetypeTableRecord
  2
ACAD_ISO11W100
 70
     0
  3
ISO double-dash dot __ __ . __ __ . __ __ . __ _
 72
    65
 73
     6
 40
33.0
 49
12.0
 74
     0
 49
-3.0
 74
     0
 49
12.0
 74
     0
 49
-3.0
 74
     0
 49
0.0
 74
     0
 49
-3.0
 74
     0
  0
LTYPE
  5
425
330
380
100
AcDbSymbolTableRecord
100
AcDbLinetypeTableRecord
  2
ACAD_ISO12W100
 70
     0
  3
ISO dash double-dot __ . . __ . . __ . . __ . . 
 72
    65
 73
     6
 40
21.0
 49
12.0
 74
     0
 49
-3.0
 74
     0
 49
0.0
 74
     0
 49
-3.0
 74
     0
 49
0.0
 74
     0
 49
-3.0
 74
     0
  0
LTYPE
  5
426
330
380
100
AcDbSymbolTableRecord
100
AcDbLinetypeTableRecord
  2
ACAD_ISO13W100
 70
     0
  3
ISO double-dash double-dot __ __ . . __ __ . . _
 72
    65
 73
     8
 40
36.0
 49
12.0
 74
     0
 49
-3.0
 74
     0
 49
12.0
 74
     0
 49
-3.0
 74
     0
 49
0.0
 74
     0
 49
-3.0
 74
     0
 49
0.0
 74
     0
 49
-3.0
 74
     0
  0
LTYPE
  5
427
330
380
100
AcDbSymbolTableRecord
100
AcDbLinetypeTableRecord
  2
ACAD_ISO14W100
 70
     0
  3
ISO dash triple-dot __ . . . __ . . . __ . . . _
 72
    65
 73
     8
 40
24.0
 49
12.0
 74
     0
 49
-3.0
 74
     0
 49
0.0
 74
     0
 49
-3.0
 74
     0
 49
0.0
 74
     0
 49
-3.0
 74
     0
 49
0.0
 74
     0
 49
-3.0
 74
     0
  0
LTYPE
  5
428
330
380
100
AcDbSymbolTableRecord
100
AcDbLinetypeTableRecord
  2
ACAD_ISO15W100
 70
     0
  3
ISO double-dash triple-dot __ __ . . . __ __ . .
 72
    65
 73
    10
 40
39.0
 49
12.0
 74
     0
 49
-3.0
 74
     0
 49
12.0
 74
     0
 49
-3.0
 74
     0
 49
0.0
 74
     0
 49
-3.0
 74
     0
 49
0.0
 74
     0
 49
-3.0
 74
     0
 49
0.0
 74
     0
 49
-3.0
 74
     0
  0
LTYPE
  5
42B
330
380
100
AcDbSymbolTableRecord
100
AcDbLinetypeTableRecord
  2
BATTING
 70
     0
  3
Batting SSSSSSSSSSSSSSSSSSSSSSSSSSSSSSSSSSSSSSSSSSSSSSS
 72
    65
 73
     4
 40
10.16254
 49
0.00254
 74
     0
 49
-2.54
 74
     2
 75
     0
340
429
 46
2.54
 50
0.0
 44
-2.54
 45
0.0
  9
BAT
 49
-5.08
 74
     2
 75
     0
340
42A
 46
2.54
 50
180.0
 44
2.54
 45
0.0
  9
BAT
 49
-2.54
 74
     0
  0
LTYPE
  5
42C
330
380
100
AcDbSymbolTableRecord
100
AcDbLinetypeTableRecord
  2
BORDER
 70
     0
  3
Border __ __ . __ __ . __ __ . __ __ . __ __ .
 72
    65
 73
     6
 40
44.45
 49
12.7
 74
     0
 49
-6.35
 74
     0
 49
12.7
 74
     0
 49
-6.35
 74
     0
 49
0.0
 74
     0
 49
-6.35
 74
     0
  0
LTYPE
  5
42D
330
380
100
AcDbSymbolTableRecord
100
AcDbLinetypeTableRecord
  2
BORDER2
 70
     0
  3
Border (.5x) __.__.__.__.__.__.__.__.__.__.__.
 72
    65
 73
     6
 40
22.225
 49
6.35
 74
     0
 49
-3.175
 74
     0
 49
6.35
 74
     0
 49
-3.175
 74
     0
 49
0.0
 74
     0
 49
-3.175
 74
     0
  0
LTYPE
  5
42E
330
380
100
AcDbSymbolTableRecord
100
AcDbLinetypeTableRecord
  2
BORDERX2
 70
     0
  3
Border (2x) ____  ____  .  ____  ____  .  ___
 72
    65
 73
     6
 40
88.89999999999999
 49
25.4
 74
     0
 49
-12.7
 74
     0
 49
25.4
 74
     0
 49
-12.7
 74
     0
 49
0.0
 74
     0
 49
-12.7
 74
     0
  0
LTYPE
  5
42F
330
380
100
AcDbSymbolTableRecord
100
AcDbLinetypeTableRecord
  2
CENTER
 70
     0
  3
Center ____ _ ____ _ ____ _ ____ _ ____ _ ____
 72
    65
 73
     4
 40
50.8
 49
31.75
 74
     0
 49
-6.35
 74
     0
 49
6.35
 74
     0
 49
-6.35
 74
     0
  0
LTYPE
  5
430
330
380
100
AcDbSymbolTableRecord
100
AcDbLinetypeTableRecord
  2
CENTER2
 70
     0
  3
Center (.5x) ___ _ ___ _ ___ _ ___ _ ___ _ ___
 72
    65
 73
     4
 40
28.575
 49
19.05
 74
     0
 49
-3.175
 74
     0
 49
3.175
 74
     0
 49
-3.175
 74
     0
  0
LTYPE
  5
431
330
380
100
AcDbSymbolTableRecord
100
AcDbLinetypeTableRecord
  2
CENTERX2
 70
     0
  3
Center (2x) ________  __  ________  __  _____
 72
    65
 73
     4
 40
101.6
 49
63.5
 74
     0
 49
-12.7
 74
     0
 49
12.7
 74
     0
 49
-12.7
 74
     0
  0
LTYPE
  5
432
330
380
100
AcDbSymbolTableRecord
100
AcDbLinetypeTableRecord
  2
DASHDOT
 70
     0
  3
Dash dot __ . __ . __ . __ . __ . __ . __ . __
 72
    65
 73
     4
 40
25.4
 49
12.7
 74
     0
 49
-6.35
 74
     0
 49
0.0
 74
     0
 49
-6.35
 74
     0
  0
LTYPE
  5
433
330
380
100
AcDbSymbolTableRecord
100
AcDbLinetypeTableRecord
  2
DASHDOT2
 70
     0
  3
Dash dot (.5x) _._._._._._._._._._._._._._._.
 72
    65
 73
     4
 40
12.7
 49
6.35
 74
     0
 49
-3.175
 74
     0
 49
0.0
 74
     0
 49
-3.175
 74
     0
  0
LTYPE
  5
434
330
380
100
AcDbSymbolTableRecord
100
AcDbLinetypeTableRecord
  2
DASHDOTX2
 70
     0
  3
Dash dot (2x) ____  .  ____  .  ____  .  ___
 72
    65
 73
     4
 40
50.8
 49
25.4
 74
     0
 49
-12.7
 74
     0
 49
0.0
 74
     0
 49
-12.7
 74
     0
  0
LTYPE
  5
435
330
380
100
AcDbSymbolTableRecord
100
AcDbLinetypeTableRecord
  2
DASHED
 70
     0
  3
Dashed __ __ __ __ __ __ __ __ __ __ __ __ __ _
 72
    65
 73
     2
 40
19.05
 49
12.7
 74
     0
 49
-6.35
 74
     0
  0
LTYPE
  5
436
330
380
100
AcDbSymbolTableRecord
100
AcDbLinetypeTableRecord
  2
DASHED2
 70
     0
  3
Dashed (.5x) _ _ _ _ _ _ _ _ _ _ _ _ _ _ _ _ _ 
 72
    65
 73
     2
 40
9.524999999999999
 49
6.35
 74
     0
 49
-3.175
 74
     0
  0
LTYPE
  5
437
330
380
100
AcDbSymbolTableRecord
100
AcDbLinetypeTableRecord
  2
DASHEDX2
 70
     0
  3
Dashed (2x) ____  ____  ____  ____  ____  ___
 72
    65
 73
     2
 40
38.09999999999999
 49
25.4
 74
     0
 49
-12.7
 74
     0
  0
LTYPE
  5
438
330
380
100
AcDbSymbolTableRecord
100
AcDbLinetypeTableRecord
  2
DIVIDE
 70
     0
  3
Divide ____ . . ____ . . ____ . . ____ . . ____
 72
    65
 73
     6
 40
31.75
 49
12.7
 74
     0
 49
-6.35
 74
     0
 49
0.0
 74
     0
 49
-6.35
 74
     0
 49
0.0
 74
     0
 49
-6.35
 74
     0
  0
LTYPE
  5
439
330
380
100
AcDbSymbolTableRecord
100
AcDbLinetypeTableRecord
  2
DIVIDE2
 70
     0
  3
Divide (.5x) __..__..__..__..__..__..__..__.._
 72
    65
 73
     6
 40
15.875
 49
6.35
 74
     0
 49
-3.175
 74
     0
 49
0.0
 74
     0
 49
-3.175
 74
     0
 49
0.0
 74
     0
 49
-3.175
 74
     0
  0
LTYPE
  5
43A
330
380
100
AcDbSymbolTableRecord
100
AcDbLinetypeTableRecord
  2
DIVIDEX2
 70
     0
  3
Divide (2x) ________  .  .  ________  .  .  _
 72
    65
 73
     6
 40
63.5
 49
25.4
 74
     0
 49
-12.7
 74
     0
 49
0.0
 74
     0
 49
-12.7
 74
     0
 49
0.0
 74
     0
 49
-12.7
 74
     0
  0
LTYPE
  5
43B
330
380
100
AcDbSymbolTableRecord
100
AcDbLinetypeTableRecord
  2
DOT
 70
     0
  3
Dot . . . . . . . . . . . . . . . . . . . . . . . .
 72
    65
 73
     2
 40
6.35
 49
0.0
 74
     0
 49
-6.35
 74
     0
  0
LTYPE
  5
43C
330
380
100
AcDbSymbolTableRecord
100
AcDbLinetypeTableRecord
  2
DOT2
 70
     0
  3
Dot (.5x) ........................................
 72
    65
 73
     2
 40
3.175
 49
0.0
 74
     0
 49
-3.175
 74
     0
  0
LTYPE
  5
43D
330
380
100
AcDbSymbolTableRecord
100
AcDbLinetypeTableRecord
  2
DOTX2
 70
     0
  3
Dot (2x) .  .  .  .  .  .  .  .  .  .  .  .  .  .
 72
    65
 73
     2
 40
12.7
 49
0.0
 74
     0
 49
-12.7
 74
     0
  0
LTYPE
  5
43F
330
380
100
AcDbSymbolTableRecord
100
AcDbLinetypeTableRecord
  2
DRAINAGE
 70
     0
  3
Drainage ---->---->---->----
 72
    65
 73
     2
 40
10.16
 49
5.08
 74
     2
 75
     0
340
43E
 46
2.54
 50
180.0
 44
0.0
 45
0.0
  9
RIGHT_ARROW
 49
5.08
 74
     0
  0
LTYPE
  5
441
330
380
100
AcDbSymbolTableRecord
100
AcDbLinetypeTableRecord
  2
DRAINAGE2
 70
     0
  3
Drainage reversed----<----<----<----
 72
    65
 73
     2
 40
10.16
 49
5.08
 74
     2
 75
     0
340
440
 46
2.54
 50
0.0
 44
0.0
 45
0.0
  9
RIGHT_ARROW
 49
5.08
 74
     0
  0
LTYPE
  5
443
330
380
100
AcDbSymbolTableRecord
100
AcDbLinetypeTableRecord
  2
FENCELINE1
 70
     0
  3
Fenceline circle ----0-----0----0-----0----0-----0--
 72
    65
 73
     4
 40
36.83
 49
6.35
 74
     0
 49
-2.54
 74
     2
 75
     0
340
442
 46
2.54
 50
0.0
 44
-2.54
 45
0.0
  9
CIRC1
 49
-2.54
 74
     0
 49
25.4
 74
     0
  0
LTYPE
  5
445
330
380
100
AcDbSymbolTableRecord
100
AcDbLinetypeTableRecord
  2
FENCELINE2
 70
     0
  3
Fenceline square ----[]-----[]----[]-----[]----[]---
 72
    65
 73
     4
 40
36.83
 49
6.35
 74
     0
 49
-2.54
 74
     2
 75
     0
340
444
 46
2.54
 50
0.0
 44
-2.54
 45
0.0
  9
BOX
 49
-2.54
 74
     0
 49
25.4
 74
     0
  0
LTYPE
  5
447
330
380
100
AcDbSymbolTableRecord
100
AcDbLinetypeTableRecord
  2
GAS_LINE
 70
     0
  3
Gas line ----GAS----GAS----GAS----GAS----GAS----GAS--
 72
    65
 73
     3
 40
24.13
 49
12.7
 74
     0
 49
-5.08
 74
     2
 75
     0
340
446
 46
2.54
 50
0.0
 44
-2.54
 45
-1.27
  9
GAS
 49
-6.35
 74
     0
  0
LTYPE
  5
448
330
380
100
AcDbSymbolTableRecord
100
AcDbLinetypeTableRecord
  2
HIDDEN
 70
     0
  3
Hidden __ __ __ __ __ __ __ __ __ __ __ __ __ __
 72
    65
 73
     2
 40
9.524999999999999
 49
6.35
 74
     0
 49
-3.175
 74
     0
  0
LTYPE
  5
449
330
380
100
AcDbSymbolTableRecord
100
AcDbLinetypeTableRecord
  2
HIDDEN2
 70
     0
  3
Hidden (.5x) _ _ _ _ _ _ _ _ _ _ _ _ _ _ _ _ _ 
 72
    65
 73
     2
 40
4.762499999999999
 49
3.175
 74
     0
 49
-1.5875
 74
     0
  0
LTYPE
  5
44A
330
380
100
AcDbSymbolTableRecord
100
AcDbLinetypeTableRecord
  2
HIDDENX2
 70
     0
  3
Hidden (2x) ____ ____ ____ ____ ____ ____ ____ 
 72
    65
 73
     2
 40
19.05
 49
12.7
 74
     0
 49
-6.35
 74
     0
  0
LTYPE
  5
44C
330
380
100
AcDbSymbolTableRecord
100
AcDbLinetypeTableRecord
  2
HOT_WATER_SUPPLY
 70
     0
  3
Hot water supply ---- HW ---- HW ---- HW ----
 72
    65
 73
     3
 40
22.86
 49
12.7
 74
     0
 49
-5.08
 74
     2
 75
     0
340
44B
 46
2.54
 50
0.0
 44
-2.54
 45
-1.27
  9
HW
 49
-5.08
 74
     0
  0
LTYPE
  5
44D
330
380
100
AcDbSymbolTableRecord
100
AcDbLinetypeTableRecord
  2
PHANTOM
 70
     0
  3
Phantom ______  __  __  ______  __  __  ______ 
 72
    65
 73
     6
 40
63.50000000000001
 49
31.75
 74
     0
 49
-6.35
 74
     0
 49
6.35
 74
     0
 49
-6.35
 74
     0
 49
6.35
 74
     0
 49
-6.35
 74
     0
  0
LTYPE
  5
44E
330
380
100
AcDbSymbolTableRecord
100
AcDbLinetypeTableRecord
  2
PHANTOM2
 70
     0
  3
Phantom (.5x) ___ _ _ ___ _ _ ___ _ _ ___ _ _
 72
    65
 73
     6
 40
31.75
 49
15.875
 74
     0
 49
-3.175
 74
     0
 49
3.175
 74
     0
 49
-3.175
 74
     0
 49
3.175
 74
     0
 49
-3.175
 74
     0
  0
LTYPE
  5
44F
330
380
100
AcDbSymbolTableRecord
100
AcDbLinetypeTableRecord
  2
PHANTOMX2
 70
     0
  3
Phantom (2x) ____________    ____    ____   _
 72
    65
 73
     6
 40
127.0
 49
63.5
 74
     0
 49
-12.7
 74
     0
 49
12.7
 74
     0
 49
-12.7
 74
     0
 49
12.7
 74
     0
 49
-12.7
 74
     0
  0
LTYPE
  5
451
330
380
100
AcDbSymbolTableRecord
100
AcDbLinetypeTableRecord
  2
TRACKS
 70
     0
  3
Tracks -|-|-|-|-|-|-|-|-|-|-|-|-|-|-|-|-|-|-|-|-|-|-|-|-
 72
    65
 73
     2
 40
7.62
 49
3.81
 74
     2
 75
     0
340
450
 46
6.35
 50
0.0
 44
0.0
 45
0.0
  9
TRACK1
 49
3.81
 74
     0
  0
LTYPE
  5
454
330
380
100
AcDbSymbolTableRecord
100
AcDbLinetypeTableRecord
  2
ZIGZAG
 70
     0
  3
Zig zag /\/\/\/\/\/\/\/\/\/\/\/\/\/\/\/\/\/\/\/\/\/\/\/
 72
    65
 73
     4
 40
20.32254
 49
0.00254
 74
     0
 49
-5.08
 74
     2
 75
     0
340
452
 46
5.08
 50
0.0
 44
-5.08
 45
0.0
  9
ZIG
 49
-10.16
 74
     2
 75
     0
340
453
 46
5.08
 50
180.0
 44
5.08
 45
0.0
  9
ZIG
 49
-5.08
 74
     0
  0
ENDTAB
  0
TABLE
  2
LAYER
  5
37D
330
0
100
AcDbSymbolTable
 70
     1
  0
LAYER
  5
38B
330
37D
100
AcDbSymbolTableRecord
100
AcDbLayerTableRecord
  2
0
 70
     0
 62
     7
420
 16777215
  6
Continuous
370
    25
390
38A
347
3C0
348
0
  0
ENDTAB
  0
TABLE
  2
STYLE
  5
37E
330
0
100
AcDbSymbolTable
 70
    13
  0
STYLE
  5
38C
330
37E
100
AcDbSymbolTableRecord
100
AcDbTextStyleTableRecord
  2
Standard
 70
     0
 40
0.0
 41
1.0
 50
0.0
 71
     0
 42
0.2
  3
txt
  4

  0
STYLE
  5
419
330
37E
100
AcDbSymbolTableRecord
100
AcDbTextStyleTableRecord
  2
QCADDimTextStyle
 70
     0
 40
0.0
 41
1.0
 50
0.0
 71
     0
 42
0.2
  3

  4

  0
STYLE
  5
429
330
37E
100
AcDbSymbolTableRecord
100
AcDbTextStyleTableRecord
  2
textstyle0
 70
     0
 40
0.0
 41
1.0
 50
0.0
 71
     0
 42
0.2
  3
ltypeshp.shx
  4

  0
STYLE
  5
42A
330
37E
100
AcDbSymbolTableRecord
100
AcDbTextStyleTableRecord
  2
textstyle1
 70
     0
 40
0.0
 41
1.0
 50
0.0
 71
     0
 42
0.2
  3
ltypeshp.shx
  4

  0
STYLE
  5
43E
330
37E
100
AcDbSymbolTableRecord
100
AcDbTextStyleTableRecord
  2
textstyle2
 70
     0
 40
0.0
 41
1.0
 50
0.0
 71
     0
 42
0.2
  3
qcadshp.shx
  4

  0
STYLE
  5
440
330
37E
100
AcDbSymbolTableRecord
100
AcDbTextStyleTableRecord
  2
textstyle3
 70
     0
 40
0.0
 41
1.0
 50
0.0
 71
     0
 42
0.2
  3
qcadshp.shx
  4

  0
STYLE
  5
442
330
37E
100
AcDbSymbolTableRecord
100
AcDbTextStyleTableRecord
  2
textstyle4
 70
     0
 40
0.0
 41
1.0
 50
0.0
 71
     0
 42
0.2
  3
ltypeshp.shx
  4

  0
STYLE
  5
444
330
37E
100
AcDbSymbolTableRecord
100
AcDbTextStyleTableRecord
  2
textstyle5
 70
     0
 40
0.0
 41
1.0
 50
0.0
 71
     0
 42
0.2
  3
ltypeshp.shx
  4

  0
STYLE
  5
446
330
37E
100
AcDbSymbolTableRecord
100
AcDbTextStyleTableRecord
  2
textstyle6
 70
     0
 40
0.0
 41
1.0
 50
0.0
 71
     0
 42
0.2
  3
STANDARD
  4

  0
STYLE
  5
44B
330
37E
100
AcDbSymbolTableRecord
100
AcDbTextStyleTableRecord
  2
textstyle7
 70
     0
 40
0.0
 41
1.0
 50
0.0
 71
     0
 42
0.2
  3
STANDARD
  4

  0
STYLE
  5
450
330
37E
100
AcDbSymbolTableRecord
100
AcDbTextStyleTableRecord
  2
textstyle8
 70
     0
 40
0.0
 41
1.0
 50
0.0
 71
     0
 42
0.2
  3
ltypeshp.shx
  4

  0
STYLE
  5
452
330
37E
100
AcDbSymbolTableRecord
100
AcDbTextStyleTableRecord
  2
textstyle9
 70
     0
 40
0.0
 41
1.0
 50
0.0
 71
     0
 42
0.2
  3
ltypeshp.shx
  4

  0
STYLE
  5
453
330
37E
100
AcDbSymbolTableRecord
100
AcDbTextStyleTableRecord
  2
textstyle10
 70
     0
 40
0.0
 41
1.0
 50
0.0
 71
     0
 42
0.2
  3
ltypeshp.shx
  4

  0
ENDTAB
  0
TABLE
  2
VIEW
  5
381
330
0
100
AcDbSymbolTable
 70
     0
  0
ENDTAB
  0
TABLE
  2
UCS
  5
382
330
0
100
AcDbSymbolTable
 70
     0
  0
ENDTAB
  0
TABLE
  2
APPID
  5
384
330
0
100
AcDbSymbolTable
 70
     2
  0
APPID
  5
38D
330
384
100
AcDbSymbolTableRecord
100
AcDbRegAppTableRecord
  2
ACAD
 70
     0
  0
APPID
  5
3E8
330
384
100
AcDbSymbolTableRecord
100
AcDbRegAppTableRecord
  2
QCAD
 70
     0
  0
ENDTAB
  0
TABLE
  2
DIMSTYLE
  5
385
330
0
100
AcDbSymbolTable
 70
     2
100
AcDbDimStyleTable
  0
DIMSTYLE
105
3A1
330
385
100
AcDbSymbolTableRecord
100
AcDbDimStyleTableRecord
  2
Standard
 70
     0
178
     0
340
38C
  0
DIMSTYLE
105
41A
330
385
100
AcDbSymbolTableRecord
100
AcDbDimStyleTableRecord
  2
QCADDimStyle
 70
     0
 41
2.5
 42
0.625
 44
1.25
 73
     0
 77
     1
140
2.5
147
0.625
178
     0
340
419
  0
ENDTAB
  0
TABLE
  2
BLOCK_RECORD
  5
37C
330
0
100
AcDbSymbolTable
 70
     2
  0
BLOCK_RECORD
  5
399
330
37C
100
AcDbSymbolTableRecord
100
AcDbBlockTableRecord
  2
*Model_Space
340
39C
 70
     0
280
     1
281
     0
  0
BLOCK_RECORD
  5
395
330
37C
100
AcDbSymbolTableRecord
100
AcDbBlockTableRecord
  2
*Paper_Space
340
398
 70
     0
280
     1
281
     0
  0
BLOCK_RECORD
  5
39D
330
37C
100
AcDbSymbolTableRecord
100
AcDbBlockTableRecord
  2
*Paper_Space0
340
3A0
 70
     0
280
     1
281
     0
  0
BLOCK_RECORD
  5
455
330
37C
100
AcDbSymbolTableRecord
100
AcDbBlockTableRecord
  2
demi sapin
340
0
102
{BLKREFS
331
36E
331
293
102
}
 70
     0
280
     1
281
     0
  0
ENDTAB
  0
ENDSEC
  0
SECTION
  2
BLOCKS
  0
BLOCK
  5
39A
330
399
100
AcDbEntity
  8
0
100
AcDbBlockBegin
  2
*Model_Space
 70
     0
 10
0.0
 20
0.0
 30
0.0
  3
*Model_Space
  1
*Model_Space
  0
ENDBLK
  5
39B
330
399
100
AcDbEntity
  8
0
100
AcDbBlockEnd
  0
BLOCK
  5
396
330
395
100
AcDbEntity
 67
     1
  8
0
100
AcDbBlockBegin
  2
*Paper_Space
 70
     0
 10
0.0
 20
0.0
 30
0.0
  3
*Paper_Space
  1
*Paper_Space
  0
ENDBLK
  5
397
330
395
100
AcDbEntity
 67
     1
  8
0
100
AcDbBlockEnd
  0
BLOCK
  5
39E
330
39D
100
AcDbEntity
  8
0
100
AcDbBlockBegin
  2
*Paper_Space0
 70
     0
 10
0.0
 20
0.0
 30
0.0
  3
*Paper_Space0
  1
*Paper_Space0
  0
ENDBLK
  5
39F
330
39D
100
AcDbEntity
  8
0
100
AcDbBlockEnd
  0
BLOCK
  5
456
330
455
100
AcDbEntity
  8
0
100
AcDbBlockBegin
  2
demi sapin
 70
     0
 10
0.0
 20
0.0
 30
0.0
  3
demi sapin
  1
demi sapin
  0
SPLINE
  5
35
330
455
100
AcDbEntity
  8
0
 62
    18
420
        0
100
AcDbSpline
210
0.0
220
0.0
230
1.0
 70
     8
 71
     3
 72
     8
 73
     4
 74
     0
 42
0.000000001
 43
0.001
 40
0.0
 40
0.0
 40
0.0
 40
0.0
 40
1.0
 40
1.0
 40
1.0
 40
1.0
 10
758.6453359574999
 20
-251.0485129444444
 30
0.0
 10
756.1013534491667
 20
-250.2817998333333
 30
0.0
 10
754.3392203352777
 20
-248.9138757777777
 30
0.0
 10
752.0995213602777
 20
-245.9669889444444
 30
0.0
  0
SPLINE
  5
36
330
455
100
AcDbEntity
  8
0
 62
    18
420
        0
100
AcDbSpline
210
0.0
220
0.0
230
1.0
 70
     8
 71
     3
 72
     8
 73
     4
 74
     0
 42
0.000000001
 43
0.001
 40
0.0
 40
0.0
 40
0.0
 40
0.0
 40
1.0
 40
1.0
 40
1.0
 40
1.0
 10
752.0995213602777
 20
-245.9669889444444
 30
0.0
 10
749.8363686602775
 20
-242.9892587499999
 30
0.0
 10
748.6866676463889
 20
-240.7173204722222
 30
0.0
 10
744.9088025269442
 20
-231.7573611111111
 30
0.0
  0
LINE
  5
37
330
455
100
AcDbEntity
  8
0
 62
    18
420
        0
100
AcDbLine
 10
744.9088025269442
 20
-231.7573611111111
 30
0.0
 11
738.1965279713887
 21
-217.1876388888888
 31
0.0
  0
SPLINE
  5
38
330
455
100
AcDbEntity
  8
0
 62
    18
420
        0
100
AcDbSpline
210
0.0
220
0.0
230
1.0
 70
     8
 71
     3
 72
     8
 73
     4
 74
     0
 42
0.000000001
 43
0.001
 40
0.0
 40
0.0
 40
0.0
 40
0.0
 40
1.0
 40
1.0
 40
1.0
 40
1.0
 10
738.1965279713887
 20
-217.1876388888888
 30
0.0
 10
731.302304043611
 20
-203.7514089527777
 30
0.0
 10
729.2454621380555
 20
-200.0004808861111
 30
0.0
 10
722.7593213130554
 20
-189.0359722222222
 30
0.0
  0
SPLINE
  5
39
330
455
100
AcDbEntity
  8
0
 62
    18
420
        0
100
AcDbSpline
210
0.0
220
0.0
230
1.0
 70
     8
 71
     3
 72
     8
 73
     4
 74
     0
 42
0.000000001
 43
0.001
 40
0.0
 40
0.0
 40
0.0
 40
0.0
 40
1.0
 40
1.0
 40
1.0
 40
1.0
 10
722.7593213130554
 20
-189.0359722222222
 30
0.0
 10
716.6676774130555
 20
-178.7383666638889
 30
0.0
 10
714.3758883297219
 20
-175.2985293305555
 30
0.0
 10
708.5278000908334
 20
-167.6752777777778
 30
0.0
  0
LINE
  5
3A
330
455
100
AcDbEntity
  8
0
 62
    18
420
        0
100
AcDbLine
 10
708.5278000908334
 20
-167.6752777777778
 30
0.0
 11
703.6975625241665
 21
-161.3781944444444
 31
0.0
  0
ELLIPSE
  5
248
330
455
100
AcDbEntity
  8
0
 62
    18
420
        0
100
AcDbEllipse
 10
534.4420983893488
 20
-259.8476411683706
 30
0.0
 11
205.6198500032181
 21
0.0
 31
0.0
210
0.0
220
0.0
230
1.0
 40
0.8433734939759033
 41
0.6038643293938826
 42
0.6867719787070703
  0
ELLIPSE
  5
249
330
455
100
AcDbEntity
  8
0
 62
    18
420
        0
100
AcDbEllipse
 10
604.6113287483688
 20
-213.7228927956364
 30
0.0
 11
116.7025453556914
 21
0.0
 31
0.0
210
0.0
220
0.0
230
1.0
 40
0.8433734939759032
 41
0.705609027601196
 42
0.9242579933626132
  0
SPLINE
  5
3D
330
455
100
AcDbEntity
  8
0
 62
    18
420
        0
100
AcDbSpline
210
0.0
220
0.0
230
1.0
 70
     8
 71
     3
 72
     8
 73
     4
 74
     0
 42
0.000000001
 43
0.001
 40
0.0
 40
0.0
 40
0.0
 40
0.0
 40
1.0
 40
1.0
 40
1.0
 40
1.0
 10
674.9160940380555
 20
-135.1635501222222
 30
0.0
 10
670.8909253463888
 20
-132.6255242666666
 30
0.0
 10
669.1268304352777
 20
-131.8683333333333
 30
0.0
 10
667.2389373352777
 20
-131.8683333333333
 30
0.0
  0
ELLIPSE
  5
24A
330
455
100
AcDbEntity
  8
0
 62
    18
420
        0
100
AcDbEllipse
 10
666.9410482977667
 20
-135.1043927246303
 30
0.0
 11
3.848587797474807
 21
0.0
 31
0.0
210
0.0
220
0.0
230
1.0
 40
0.8433734939759024
 41
1.493316662841178
 42
2.693504904924293
  0
SPLINE
  5
3F
330
455
100
AcDbEntity
  8
0
 62
    18
420
        0
100
AcDbSpline
210
0.0
220
0.0
230
1.0
 70
     8
 71
     3
 72
     8
 73
     4
 74
     0
 42
0.000000001
 43
0.001
 40
0.0
 40
0.0
 40
0.0
 40
0.0
 40
1.0
 40
1.0
 40
1.0
 40
1.0
 10
663.4724037908331
 20
-133.6981743805555
 30
0.0
 10
662.8330921408333
 20
-134.6388573833333
 30
0.0
 10
662.7873266324998
 20
-134.9624805472222
 30
0.0
 10
662.8055391380555
 20
-138.4123611111111
 30
0.0
  0
ELLIPSE
  5
24B
330
455
100
AcDbEntity
  8
0
 62
    18
420
        0
100
AcDbEllipse
 10
763.5921075998808
 20
-137.4925860556127
 30
0.0
 11
100.792468814792
 21
0.0
 31
0.0
210
0.0
220
0.0
230
1.0
 40
0.8433734939759036
 41
3.152413022583503
 42
3.235343555061545
  0
SPLINE
  5
41
330
455
100
AcDbEntity
  8
0
 62
    18
420
        0
100
AcDbSpline
210
0.0
220
0.0
230
1.0
 70
     8
 71
     3
 72
     8
 73
     4
 74
     0
 42
0.000000001
 43
0.001
 40
0.0
 40
0.0
 40
0.0
 40
0.0
 40
1.0
 40
1.0
 40
1.0
 40
1.0
 10
663.2422586241664
 20
-145.4502777777778
 30
0.0
 10
663.8336965658332
 20
-150.1765129277778
 30
0.0
 10
663.7895707686109
 20
-156.7617656111111
 30
0.0
 10
663.143407468611
 20
-160.1963627833333
 30
0.0
  0
SPLINE
  5
42
330
455
100
AcDbEntity
  8
0
 62
    18
420
        0
100
AcDbSpline
210
0.0
220
0.0
230
1.0
 70
     8
 71
     3
 72
     8
 73
     4
 74
     0
 42
0.000000001
 43
0.001
 40
0.0
 40
0.0
 40
0.0
 40
0.0
 40
1.0
 40
1.0
 40
1.0
 40
1.0
 10
663.143407468611
 20
-160.1963627833333
 30
0.0
 10
662.3191598297221
 20
-164.5776511166666
 30
0.0
 10
659.6172380047221
 20
-171.1790268027777
 30
0.0
 10
656.7177895519443
 20
-175.8954335638888
 30
0.0
  0
SPLINE
  5
43
330
455
100
AcDbEntity
  8
0
 62
    18
420
        0
100
AcDbSpline
210
0.0
220
0.0
230
1.0
 70
     8
 71
     3
 72
     8
 73
     4
 74
     0
 42
0.000000001
 43
0.001
 40
0.0
 40
0.0
 40
0.0
 40
0.0
 40
1.0
 40
1.0
 40
1.0
 40
1.0
 10
656.7177895519443
 20
-175.8954335638888
 30
0.0
 10
655.3581176741667
 20
-178.1071741944444
 30
0.0
 10
653.402527929722
 20
-180.0514221333333
 30
0.0
 10
651.5288358991666
 20
-181.0543376055555
 30
0.0
  0
SPLINE
  5
44
330
455
100
AcDbEntity
  8
0
 62
    18
420
        0
100
AcDbSpline
210
0.0
220
0.0
230
1.0
 70
     8
 71
     3
 72
     8
 73
     4
 74
     0
 42
0.000000001
 43
0.001
 40
0.0
 40
0.0
 40
0.0
 40
0.0
 40
1.0
 40
1.0
 40
1.0
 40
1.0
 10
651.5288358991666
 20
-181.0543376055555
 30
0.0
 10
647.5763708269444
 20
-183.1699402944444
 30
0.0
 10
643.9544539463886
 20
-180.8267832388889
 30
0.0
 10
636.3832050130554
 20
-171.2559722222222
 30
0.0
  0
ELLIPSE
  5
24C
330
455
100
AcDbEntity
  8
0
 62
    18
420
        0
100
AcDbEllipse
 10
876.7782757898117
 20
-37.53925468178429
 30
0.0
 11
287.9719364483688
 21
0.0
 31
0.0
210
0.0
220
0.0
230
1.0
 40
0.8433734939759034
 41
3.664885014708873
 42
3.724644175711591
  0
SPLINE
  5
46
330
455
100
AcDbEntity
  8
0
 62
    18
420
        0
100
AcDbSpline
210
0.0
220
0.0
230
1.0
 70
     8
 71
     3
 72
     8
 73
     4
 74
     0
 42
0.000000001
 43
0.001
 40
0.0
 40
0.0
 40
0.0
 40
0.0
 40
1.0
 40
1.0
 40
1.0
 40
1.0
 10
627.3431555713888
 20
-158.90875
 30
0.0
 10
624.9328387991665
 20
-155.217199725
 30
0.0
 10
616.2915026824999
 20
-143.9760515472222
 30
0.0
 10
611.3023888213887
 20
-138.0419444444444
 30
0.0
  0
SPLINE
  5
47
330
455
100
AcDbEntity
  8
0
 62
    18
420
        0
100
AcDbSpline
210
0.0
220
0.0
230
1.0
 70
     8
 71
     3
 72
     8
 73
     4
 74
     0
 42
0.000000001
 43
0.001
 40
0.0
 40
0.0
 40
0.0
 40
0.0
 40
1.0
 40
1.0
 40
1.0
 40
1.0
 10
611.3023888213887
 20
-138.0419444444444
 30
0.0
 10
606.6937464991665
 20
-132.5603951388889
 30
0.0
 10
600.9300448213888
 20
-126.8526373138889
 30
0.0
 10
597.3153602380555
 20
-124.1906848583333
 30
0.0
  0
SPLINE
  5
48
330
455
100
AcDbEntity
  8
0
 62
    18
420
        0
100
AcDbSpline
210
0.0
220
0.0
230
1.0
 70
     8
 71
     3
 72
     8
 73
     4
 74
     0
 42
0.000000001
 43
0.001
 40
0.0
 40
0.0
 40
0.0
 40
0.0
 40
1.0
 40
1.0
 40
1.0
 40
1.0
 10
597.3153602380555
 20
-124.1906848583333
 30
0.0
 10
590.1862476936111
 20
-118.9405817638889
 30
0.0
 10
584.9916136130556
 20
-116.9018800444444
 30
0.0
 10
582.1328358519445
 20
-118.2320858055555
 30
0.0
  0
SPLINE
  5
49
330
455
100
AcDbEntity
  8
0
 62
    18
420
        0
100
AcDbSpline
210
0.0
220
0.0
230
1.0
 70
     8
 71
     3
 72
     8
 73
     4
 74
     0
 42
0.000000001
 43
0.001
 40
0.0
 40
0.0
 40
0.0
 40
0.0
 40
1.0
 40
1.0
 40
1.0
 40
1.0
 10
582.1328358519445
 20
-118.2320858055555
 30
0.0
 10
579.5473335158332
 20
-119.4351299944444
 30
0.0
 10
579.3896284436111
 20
-121.8815468694444
 30
0.0
 10
581.3705751491665
 20
-130.0577934638889
 30
0.0
  0
SPLINE
  5
4A
330
455
100
AcDbEntity
  8
0
 62
    18
420
        0
100
AcDbSpline
210
0.0
220
0.0
230
1.0
 70
     8
 71
     3
 72
     8
 73
     4
 74
     0
 42
0.000000001
 43
0.001
 40
0.0
 40
0.0
 40
0.0
 40
0.0
 40
1.0
 40
1.0
 40
1.0
 40
1.0
 10
581.3705751491665
 20
-130.0577934638889
 30
0.0
 10
582.9303210630554
 20
-136.4956400694444
 30
0.0
 10
583.283854490833
 20
-139.4286757888889
 30
0.0
 10
583.2854063602776
 20
-145.9441666666666
 30
0.0
  0
SPLINE
  5
4B
330
455
100
AcDbEntity
  8
0
 62
    18
420
        0
100
AcDbSpline
210
0.0
220
0.0
230
1.0
 70
     8
 71
     3
 72
     8
 73
     4
 74
     0
 42
0.000000001
 43
0.001
 40
0.0
 40
0.0
 40
0.0
 40
0.0
 40
1.0
 40
1.0
 40
1.0
 40
1.0
 10
583.2854063602776
 20
-145.9441666666666
 30
0.0
 10
583.2883344158333
 20
-155.1705766138889
 30
0.0
 10
581.5391433074999
 20
-161.8384593777777
 30
0.0
 10
576.4861685547221
 20
-171.8733333333333
 30
0.0
  0
SPLINE
  5
4C
330
455
100
AcDbEntity
  8
0
 62
    18
420
        0
100
AcDbSpline
210
0.0
220
0.0
230
1.0
 70
     8
 71
     3
 72
     8
 73
     4
 74
     0
 42
0.000000001
 43
0.001
 40
0.0
 40
0.0
 40
0.0
 40
0.0
 40
1.0
 40
1.0
 40
1.0
 40
1.0
 10
576.4861685547221
 20
-171.8733333333333
 30
0.0
 10
574.6499263547221
 20
-175.520003925
 30
0.0
 10
572.8028503491665
 20
-177.9686976277777
 30
0.0
 10
568.9649600908332
 20
-181.84437215
 30
0.0
  0
ELLIPSE
  5
24D
330
455
100
AcDbEntity
  8
0
 62
    18
420
        0
100
AcDbEllipse
 10
546.6480656330084
 20
-166.6944496492283
 30
0.0
 11
28.64839219405781
 21
0.0
 31
0.0
210
0.0
220
0.0
230
1.0
 40
0.8433734939759036
 41
5.183700895238673
 42
5.605447074126898
  0
SPLINE
  5
4E
330
455
100
AcDbEntity
  8
0
 62
    18
420
        0
100
AcDbSpline
210
0.0
220
0.0
230
1.0
 70
     8
 71
     3
 72
     8
 73
     4
 74
     0
 42
0.000000001
 43
0.001
 40
0.0
 40
0.0
 40
0.0
 40
0.0
 40
1.0
 40
1.0
 40
1.0
 40
1.0
 10
559.6560273074999
 20
-188.2215198111111
 30
0.0
 10
556.6952360908332
 20
-189.4843369027777
 30
0.0
 10
556.5054102491665
 20
-189.5297722111111
 30
0.0
 10
554.200591318611
 20
-189.5272879499999
 30
0.0
  0
SPLINE
  5
4F
330
455
100
AcDbEntity
  8
0
 62
    18
420
        0
100
AcDbSpline
210
0.0
220
0.0
230
1.0
 70
     8
 71
     3
 72
     8
 73
     4
 74
     0
 42
0.000000001
 43
0.001
 40
0.0
 40
0.0
 40
0.0
 40
0.0
 40
1.0
 40
1.0
 40
1.0
 40
1.0
 10
554.200591318611
 20
-189.5272879499999
 30
0.0
 10
551.278157629722
 20
-189.5241270611111
 30
0.0
 10
550.0747853574998
 20
-189.0888183333333
 30
0.0
 10
548.0062019491666
 20
-187.2864844277777
 30
0.0
  0
SPLINE
  5
50
330
455
100
AcDbEntity
  8
0
 62
    18
420
        0
100
AcDbSpline
210
0.0
220
0.0
230
1.0
 70
     8
 71
     3
 72
     8
 73
     4
 74
     0
 42
0.000000001
 43
0.001
 40
0.0
 40
0.0
 40
0.0
 40
0.0
 40
1.0
 40
1.0
 40
1.0
 40
1.0
 10
548.0062019491666
 20
-187.2864844277777
 30
0.0
 10
545.9535471630554
 20
-185.4980263305555
 30
0.0
 10
544.1658228436111
 20
-182.8582865277777
 30
0.0
 10
538.4876203880556
 20
-173.2315277777777
 30
0.0
  0
SPLINE
  5
51
330
455
100
AcDbEntity
  8
0
 62
    18
420
        0
100
AcDbSpline
210
0.0
220
0.0
230
1.0
 70
     8
 71
     3
 72
     8
 73
     4
 74
     0
 42
0.000000001
 43
0.001
 40
0.0
 40
0.0
 40
0.0
 40
0.0
 40
1.0
 40
1.0
 40
1.0
 40
1.0
 10
538.4876203880556
 20
-173.2315277777777
 30
0.0
 10
529.5536543991666
 20
-158.0849087611111
 30
0.0
 10
525.0365430936112
 20
-151.4962926944444
 30
0.0
 10
514.8694557880555
 20
-138.7823159916666
 30
0.0
  0
ELLIPSE
  5
24E
330
455
100
AcDbEntity
  8
0
 62
    18
420
        0
100
AcDbEllipse
 10
305.2050544164466
 20
-258.5059832429822
 30
0.0
 11
-253.2019998718216
 21
3.100830186807348E-14
 31
0.0
210
0.0
220
0.0
230
1.0
 40
0.8433734939759034
 41
3.736764942763707
 42
3.829064275303057
  0
SPLINE
  5
53
330
455
100
AcDbEntity
  8
0
 62
    18
420
        0
100
AcDbSpline
210
0.0
220
0.0
230
1.0
 70
     8
 71
     3
 72
     8
 73
     4
 74
     0
 42
0.000000001
 43
0.001
 40
0.0
 40
0.0
 40
0.0
 40
0.0
 40
1.0
 40
1.0
 40
1.0
 40
1.0
 10
500.8929682047221
 20
-122.9942242083333
 30
0.0
 10
494.9161333630555
 20
-117.0028877305555
 30
0.0
 10
482.9599748324999
 20
-107.4396529694444
 30
0.0
 10
475.2061323547222
 20
-102.4484192666666
 30
0.0
  0
SPLINE
  5
54
330
455
100
AcDbEntity
  8
0
 62
    18
420
        0
100
AcDbSpline
210
0.0
220
0.0
230
1.0
 70
     8
 71
     3
 72
     8
 73
     4
 74
     0
 42
0.000000001
 43
0.001
 40
0.0
 40
0.0
 40
0.0
 40
0.0
 40
1.0
 40
1.0
 40
1.0
 40
1.0
 10
475.2061323547222
 20
-102.4484192666666
 30
0.0
 10
469.1757726575
 20
-98.56660570555555
 30
0.0
 10
466.7160303075
 20
-97.2450602861111
 30
0.0
 10
461.6467170047223
 20
-95.16335319166666
 30
0.0
  0
SPLINE
  5
55
330
455
100
AcDbEntity
  8
0
 62
    18
420
        0
100
AcDbSpline
210
0.0
220
0.0
230
1.0
 70
     8
 71
     3
 72
     8
 73
     4
 74
     0
 42
0.000000001
 43
0.001
 40
0.0
 40
0.0
 40
0.0
 40
0.0
 40
1.0
 40
1.0
 40
1.0
 40
1.0
 10
461.6467170047223
 20
-95.16335319166666
 30
0.0
 10
456.0049981213888
 20
-92.84658214999999
 30
0.0
 10
453.7181867324999
 20
-92.60464573888888
 30
0.0
 10
451.6859112130555
 20
-94.10952765277776
 30
0.0
  0
SPLINE
  5
56
330
455
100
AcDbEntity
  8
0
 62
    18
420
        0
100
AcDbSpline
210
0.0
220
0.0
230
1.0
 70
     8
 71
     3
 72
     8
 73
     4
 74
     0
 42
0.000000001
 43
0.001
 40
0.0
 40
0.0
 40
0.0
 40
0.0
 40
1.0
 40
1.0
 40
1.0
 40
1.0
 10
451.6859112130555
 20
-94.10952765277776
 30
0.0
 10
450.233917743611
 20
-95.18472623333334
 30
0.0
 10
449.8468287991666
 20
-96.49770761944443
 30
0.0
 10
449.1811646491666
 20
-102.6054166666667
 30
0.0
  0
SPLINE
  5
57
330
455
100
AcDbEntity
  8
0
 62
    18
420
        0
100
AcDbSpline
210
0.0
220
0.0
230
1.0
 70
     8
 71
     3
 72
     8
 73
     4
 74
     0
 42
0.000000001
 43
0.001
 40
0.0
 40
0.0
 40
0.0
 40
0.0
 40
1.0
 40
1.0
 40
1.0
 40
1.0
 10
449.1811646491666
 20
-102.6054166666667
 30
0.0
 10
448.5190727269444
 20
-108.6806698055555
 30
0.0
 10
448.3294225686111
 20
-109.7355942472222
 30
0.0
 10
447.1390508630555
 20
-113.9648611111111
 30
0.0
  0
SPLINE
  5
58
330
455
100
AcDbEntity
  8
0
 62
    18
420
        0
100
AcDbSpline
210
0.0
220
0.0
230
1.0
 70
     8
 71
     3
 72
     8
 73
     4
 74
     0
 42
0.000000001
 43
0.001
 40
0.0
 40
0.0
 40
0.0
 40
0.0
 40
1.0
 40
1.0
 40
1.0
 40
1.0
 10
447.1390508630555
 20
-113.9648611111111
 30
0.0
 10
445.6548487825
 20
-119.2380214083333
 30
0.0
 10
443.3784319908333
 20
-123.6170427916666
 30
0.0
 10
440.5341481047222
 20
-126.6703256388889
 30
0.0
  0
SPLINE
  5
59
330
455
100
AcDbEntity
  8
0
 62
    18
420
        0
100
AcDbSpline
210
0.0
220
0.0
230
1.0
 70
     8
 71
     3
 72
     8
 73
     4
 74
     0
 42
0.000000001
 43
0.001
 40
0.0
 40
0.0
 40
0.0
 40
0.0
 40
1.0
 40
1.0
 40
1.0
 40
1.0
 10
440.5341481047222
 20
-126.6703256388889
 30
0.0
 10
437.4547999186112
 20
-129.9759239722222
 30
0.0
 10
433.7371063408332
 20
-130.9774911277777
 30
0.0
 10
430.1769128713889
 20
-129.460625
 30
0.0
  0
SPLINE
  5
5A
330
455
100
AcDbEntity
  8
0
 62
    18
420
        0
100
AcDbSpline
210
0.0
220
0.0
230
1.0
 70
     8
 71
     3
 72
     8
 73
     4
 74
     0
 42
0.000000001
 43
0.001
 40
0.0
 40
0.0
 40
0.0
 40
0.0
 40
1.0
 40
1.0
 40
1.0
 40
1.0
 10
430.1769128713889
 20
-129.460625
 30
0.0
 10
427.2693537047221
 20
-128.2218281944444
 30
0.0
 10
422.0071108213888
 20
-123.4943360972222
 30
0.0
 10
416.9140802686111
 20
-117.5455555555555
 30
0.0
  0
LINE
  5
5B
330
455
100
AcDbEntity
  8
0
 62
    18
420
        0
100
AcDbLine
 10
416.9140802686111
 20
-117.5455555555555
 30
0.0
 11
409.5219404936112
 21
-108.9025
 31
0.0
  0
SPLINE
  5
5C
330
455
100
AcDbEntity
  8
0
 62
    18
420
        0
100
AcDbSpline
210
0.0
220
0.0
230
1.0
 70
     8
 71
     3
 72
     8
 73
     4
 74
     0
 42
0.000000001
 43
0.001
 40
0.0
 40
0.0
 40
0.0
 40
0.0
 40
1.0
 40
1.0
 40
1.0
 40
1.0
 10
409.5219404936112
 20
-108.9025
 30
0.0
 10
400.8065538519445
 20
-98.70992979166665
 30
0.0
 10
398.8196339130556
 20
-96.58073281111109
 30
0.0
 10
394.5760908380556
 20
-92.88644145277776
 30
0.0
  0
SPLINE
  5
5D
330
455
100
AcDbEntity
  8
0
 62
    18
420
        0
100
AcDbSpline
210
0.0
220
0.0
230
1.0
 70
     8
 71
     3
 72
     8
 73
     4
 74
     0
 42
0.000000001
 43
0.001
 40
0.0
 40
0.0
 40
0.0
 40
0.0
 40
1.0
 40
1.0
 40
1.0
 40
1.0
 10
394.5760908380556
 20
-92.88644145277776
 30
0.0
 10
387.9037842408335
 20
-87.07775743333332
 30
0.0
 10
383.0507956825001
 20
-83.75762148055553
 30
0.0
 10
378.3020459019446
 20
-81.75266471944441
 30
0.0
  0
SPLINE
  5
5E
330
455
100
AcDbEntity
  8
0
 62
    18
420
        0
100
AcDbSpline
210
0.0
220
0.0
230
1.0
 70
     8
 71
     3
 72
     8
 73
     4
 74
     0
 42
0.000000001
 43
0.001
 40
0.0
 40
0.0
 40
0.0
 40
0.0
 40
1.0
 40
1.0
 40
1.0
 40
1.0
 10
378.3020459019446
 20
-81.75266471944441
 30
0.0
 10
374.0270555102779
 20
-79.94773048888887
 30
0.0
 10
371.8775113658334
 20
-79.86118880833331
 30
0.0
 10
370.409706396389
 20
-81.43492377222219
 30
0.0
  0
SPLINE
  5
5F
330
455
100
AcDbEntity
  8
0
 62
    18
420
        0
100
AcDbSpline
210
0.0
220
0.0
230
1.0
 70
     8
 71
     3
 72
     8
 73
     4
 74
     0
 42
0.000000001
 43
0.001
 40
0.0
 40
0.0
 40
0.0
 40
0.0
 40
1.0
 40
1.0
 40
1.0
 40
1.0
 10
370.409706396389
 20
-81.43492377222219
 30
0.0
 10
369.7655927352778
 20
-82.12551378888885
 30
0.0
 10
369.639159296389
 20
-84.08762074999997
 30
0.0
 10
370.1275589630556
 20
-85.81319444444442
 30
0.0
  0
ELLIPSE
  5
24F
330
455
100
AcDbEntity
  8
0
 62
    18
420
        0
100
AcDbEllipse
 10
234.9273869595267
 20
-106.8828248185562
 30
0.0
 11
137.4889628309935
 21
0.0
 31
0.0
210
0.0
220
0.0
230
1.0
 40
0.8433734939759036
 41
0.1341908315211504
 42
0.1827209975267105
  0
ELLIPSE
  5
250
330
455
100
AcDbEntity
  8
0
 62
    18
420
        0
100
AcDbEllipse
 10
324.1587404267656
 20
-98.21091388806282
 30
0.0
 11
47.71617333548993
 21
0.0
 31
0.0
210
0.0
220
0.0
230
1.0
 40
0.8433734939759034
 41
6.226113345230714
 42
6.454020900980933
  0
SPLINE
  5
62
330
455
100
AcDbEntity
  8
0
 62
    18
420
        0
100
AcDbSpline
210
0.0
220
0.0
230
1.0
 70
     8
 71
     3
 72
     8
 73
     4
 74
     0
 42
0.000000001
 43
0.001
 40
0.0
 40
0.0
 40
0.0
 40
0.0
 40
1.0
 40
1.0
 40
1.0
 40
1.0
 10
371.7972240825
 20
-100.5063888888889
 30
0.0
 10
371.5790546630556
 20
-106.8855861888889
 30
0.0
 10
370.6811371463889
 20
-110.7232510222222
 30
0.0
 10
367.8713457547223
 20
-117.2856885083333
 30
0.0
  0
SPLINE
  5
63
330
455
100
AcDbEntity
  8
0
 62
    18
420
        0
100
AcDbSpline
210
0.0
220
0.0
230
1.0
 70
     8
 71
     3
 72
     8
 73
     4
 74
     0
 42
0.000000001
 43
0.001
 40
0.0
 40
0.0
 40
0.0
 40
0.0
 40
1.0
 40
1.0
 40
1.0
 40
1.0
 10
367.8713457547223
 20
-117.2856885083333
 30
0.0
 10
365.0922696658334
 20
-123.7763491222222
 30
0.0
 10
362.5751667075
 20
-127.8084086222222
 30
0.0
 10
358.9991031769445
 20
-131.4979166666666
 30
0.0
  0
SPLINE
  5
64
330
455
100
AcDbEntity
  8
0
 62
    18
420
        0
100
AcDbSpline
210
0.0
220
0.0
230
1.0
 70
     8
 71
     3
 72
     8
 73
     4
 74
     0
 42
0.000000001
 43
0.001
 40
0.0
 40
0.0
 40
0.0
 40
0.0
 40
1.0
 40
1.0
 40
1.0
 40
1.0
 10
358.9991031769445
 20
-131.4979166666666
 30
0.0
 10
355.6427023741668
 20
-134.9607445277778
 30
0.0
 10
352.9123198491667
 20
-136.5061549638889
 30
0.0
 10
349.0920857658334
 20
-137.1053261472222
 30
0.0
  0
SPLINE
  5
65
330
455
100
AcDbEntity
  8
0
 62
    18
420
        0
100
AcDbSpline
210
0.0
220
0.0
230
1.0
 70
     8
 71
     3
 72
     8
 73
     4
 74
     0
 42
0.000000001
 43
0.001
 40
0.0
 40
0.0
 40
0.0
 40
0.0
 40
1.0
 40
1.0
 40
1.0
 40
1.0
 10
349.0920857658334
 20
-137.1053261472222
 30
0.0
 10
345.5481722852779
 20
-137.6611635194444
 30
0.0
 10
342.8814749686112
 20
-136.6138227416667
 30
0.0
 10
338.6482093686112
 20
-133.0034949638889
 30
0.0
  0
SPLINE
  5
66
330
455
100
AcDbEntity
  8
0
 62
    18
420
        0
100
AcDbSpline
210
0.0
220
0.0
230
1.0
 70
     8
 71
     3
 72
     8
 73
     4
 74
     0
 42
0.000000001
 43
0.001
 40
0.0
 40
0.0
 40
0.0
 40
0.0
 40
1.0
 40
1.0
 40
1.0
 40
1.0
 10
338.6482093686112
 20
-133.0034949638889
 30
0.0
 10
335.7431390491668
 20
-130.5259285166667
 30
0.0
 10
333.8517615630556
 20
-128.2818628583333
 30
0.0
 10
325.6992057602778
 20
-117.6399105583333
 30
0.0
  0
SPLINE
  5
67
330
455
100
AcDbEntity
  8
0
 62
    18
420
        0
100
AcDbSpline
210
0.0
220
0.0
230
1.0
 70
     8
 71
     3
 72
     8
 73
     4
 74
     0
 42
0.000000001
 43
0.001
 40
0.0
 40
0.0
 40
0.0
 40
0.0
 40
1.0
 40
1.0
 40
1.0
 40
1.0
 10
325.6992057602778
 20
-117.6399105583333
 30
0.0
 10
315.9477266602779
 20
-104.9108406111111
 30
0.0
 10
311.0859246547223
 20
-99.56726163611111
 30
0.0
 10
303.2435670575001
 20
-92.95906534444444
 30
0.0
  0
SPLINE
  5
68
330
455
100
AcDbEntity
  8
0
 62
    18
420
        0
100
AcDbSpline
210
0.0
220
0.0
230
1.0
 70
     8
 71
     3
 72
     8
 73
     4
 74
     0
 42
0.000000001
 43
0.001
 40
0.0
 40
0.0
 40
0.0
 40
0.0
 40
1.0
 40
1.0
 40
1.0
 40
1.0
 10
303.2435670575001
 20
-92.95906534444444
 30
0.0
 10
285.4409307186111
 20
-77.95805711944443
 30
0.0
 10
264.7370598130556
 20
-65.48343872777777
 30
0.0
 10
244.3668408380555
 20
-57.48430315833333
 30
0.0
  0
SPLINE
  5
69
330
455
100
AcDbEntity
  8
0
 62
    18
420
        0
100
AcDbSpline
210
0.0
220
0.0
230
1.0
 70
     8
 71
     3
 72
     8
 73
     4
 74
     0
 42
0.000000001
 43
0.001
 40
0.0
 40
0.0
 40
0.0
 40
0.0
 40
1.0
 40
1.0
 40
1.0
 40
1.0
 10
244.3668408380555
 20
-57.48430315833333
 30
0.0
 10
238.3254423713888
 20
-55.11192022777777
 30
0.0
 10
227.8465464297222
 20
-51.51092941944444
 30
0.0
 10
224.8695630658333
 20
-50.78421883888888
 30
0.0
  0
SPLINE
  5
6A
330
455
100
AcDbEntity
  8
0
 62
    18
420
        0
100
AcDbSpline
210
0.0
220
0.0
230
1.0
 70
     8
 71
     3
 72
     8
 73
     4
 74
     0
 42
0.000000001
 43
0.001
 40
0.0
 40
0.0
 40
0.0
 40
0.0
 40
1.0
 40
1.0
 40
1.0
 40
1.0
 10
224.8695630658333
 20
-50.78421883888888
 30
0.0
 10
220.6836734047222
 20
-49.76239976944444
 30
0.0
 10
218.7744347797222
 20
-49.80971185555554
 30
0.0
 10
217.3994491713889
 20
-50.96933333333332
 30
0.0
  0
SPLINE
  5
6B
330
455
100
AcDbEntity
  8
0
 62
    18
420
        0
100
AcDbSpline
210
0.0
220
0.0
230
1.0
 70
     8
 71
     3
 72
     8
 73
     4
 74
     0
 42
0.000000001
 43
0.001
 40
0.0
 40
0.0
 40
0.0
 40
0.0
 40
1.0
 40
1.0
 40
1.0
 40
1.0
 10
217.3994491713889
 20
-50.96933333333332
 30
0.0
 10
216.5367854436111
 20
-51.69687117777777
 30
0.0
 10
216.4039102825
 20
-51.97127831388887
 30
0.0
 10
216.4039102825
 20
-53.02510879166666
 30
0.0
  0
ELLIPSE
  5
251
330
455
100
AcDbEntity
  8
0
 62
    18
420
        0
100
AcDbEllipse
 10
230.5258550035497
 20
-52.16752909138032
 30
0.0
 11
14.15850611629486
 21
0.0
 31
0.0
210
0.0
220
0.0
230
1.0
 40
0.8433734939759028
 41
3.21347316567074
 42
3.474956257779294
  0
SPLINE
  5
6D
330
455
100
AcDbEntity
  8
0
 62
    18
420
        0
100
AcDbSpline
210
0.0
220
0.0
230
1.0
 70
     8
 71
     3
 72
     8
 73
     4
 74
     0
 42
0.000000001
 43
0.001
 40
0.0
 40
0.0
 40
0.0
 40
0.0
 40
1.0
 40
1.0
 40
1.0
 40
1.0
 10
217.1468165380555
 20
-56.07487268055555
 30
0.0
 10
218.9060508769444
 20
-60.41698327777777
 30
0.0
 10
219.6978263797222
 20
-63.68938980833333
 30
0.0
 10
219.8487676436111
 20
-67.24214248888887
 30
0.0
  0
SPLINE
  5
6E
330
455
100
AcDbEntity
  8
0
 62
    18
420
        0
100
AcDbSpline
210
0.0
220
0.0
230
1.0
 70
     8
 71
     3
 72
     8
 73
     4
 74
     0
 42
0.000000001
 43
0.001
 40
0.0
 40
0.0
 40
0.0
 40
0.0
 40
1.0
 40
1.0
 40
1.0
 40
1.0
 10
219.8487676436111
 20
-67.24214248888887
 30
0.0
 10
220.0571866380556
 20
-72.14780253333332
 30
0.0
 10
219.3297990769445
 20
-75.29675165833333
 30
0.0
 10
217.0993234769444
 20
-79.14484989444442
 30
0.0
  0
SPLINE
  5
6F
330
455
100
AcDbEntity
  8
0
 62
    18
420
        0
100
AcDbSpline
210
0.0
220
0.0
230
1.0
 70
     8
 71
     3
 72
     8
 73
     4
 74
     0
 42
0.000000001
 43
0.001
 40
0.0
 40
0.0
 40
0.0
 40
0.0
 40
1.0
 40
1.0
 40
1.0
 40
1.0
 10
217.0993234769444
 20
-79.14484989444442
 30
0.0
 10
216.0655734630556
 20
-80.92826785555555
 30
0.0
 10
213.7866092630556
 20
-83.07653635555553
 30
0.0
 10
212.2077724269445
 20
-83.7558410111111
 30
0.0
  0
SPLINE
  5
70
330
455
100
AcDbEntity
  8
0
 62
    18
420
        0
100
AcDbSpline
210
0.0
220
0.0
230
1.0
 70
     8
 71
     3
 72
     8
 73
     4
 74
     0
 42
0.000000001
 43
0.001
 40
0.0
 40
0.0
 40
0.0
 40
0.0
 40
1.0
 40
1.0
 40
1.0
 40
1.0
 10
212.2077724269445
 20
-83.7558410111111
 30
0.0
 10
207.4426548158333
 20
-85.80607009722222
 30
0.0
 10
199.6019662102778
 20
-83.1236237222222
 30
0.0
 10
187.7457129352778
 20
-75.38689378888888
 30
0.0
  0
ELLIPSE
  5
252
330
455
100
AcDbEntity
  8
0
 62
    18
420
        0
100
AcDbEllipse
 10
11.90495077466301
 20
-263.2996649857248
 30
0.0
 11
283.8391300673724
 21
0.0
 31
0.0
210
0.0
220
0.0
230
1.0
 40
0.8433734939759036
 41
0.9026798631404611
 42
0.9942824525780771
  0
SPLINE
  5
72
330
455
100
AcDbEntity
  8
0
 62
    18
420
        0
100
AcDbSpline
210
0.0
220
0.0
230
1.0
 70
     8
 71
     3
 72
     8
 73
     4
 74
     0
 42
0.000000001
 43
0.001
 40
0.0
 40
0.0
 40
0.0
 40
0.0
 40
1.0
 40
1.0
 40
1.0
 40
1.0
 10
166.6269658380556
 20
-62.60911158055554
 30
0.0
 10
154.6318934491667
 20
-55.89936679444444
 30
0.0
 10
147.9819864769445
 20
-52.55406967222221
 30
0.0
 10
132.3687158380556
 20
-45.37524897499999
 30
0.0
  0
ELLIPSE
  5
253
330
455
100
AcDbEntity
  8
0
 62
    18
420
        0
100
AcDbEllipse
 10
0.766858834996005
 20
-249.3527142277231
 30
0.0
 11
275.3449145961284
 21
0.0
 31
0.0
210
0.0
220
0.0
230
1.0
 40
0.8433734939759034
 41
1.072473801427532
 42
1.177995732554278
  0
LINE
  5
74
330
455
100
AcDbEntity
  8
0
 62
    18
420
        0
100
AcDbLine
 10
106.1626186158334
 20
-34.81972229166666
 30
0.0
 11
99.72089639361111
 21
-32.46973722222221
 31
0.0
  0
SPLINE
  5
75
330
455
100
AcDbEntity
  8
0
 62
    18
420
        0
100
AcDbSpline
210
0.0
220
0.0
230
1.0
 70
     8
 71
     3
 72
     8
 73
     4
 74
     0
 42
0.000000001
 43
0.001
 40
0.0
 40
0.0
 40
0.0
 40
0.0
 40
1.0
 40
1.0
 40
1.0
 40
1.0
 10
99.72089639361111
 20
-32.46973722222221
 30
0.0
 10
94.15516055194446
 20
-30.36011305833333
 30
0.0
 10
69.12107612694444
 20
-23.10141324166666
 30
0.0
 10
60.04574361583335
 20
-20.96583027777777
 30
0.0
  0
ELLIPSE
  5
254
330
455
100
AcDbEntity
  8
0
 62
    18
420
        0
100
AcDbEllipse
 10
124.4327135276503
 20
173.9040689994894
 30
0.0
 11
239.8633284212578
 21
0.0
 31
0.0
210
0.0
220
0.0
230
1.0
 40
0.8433734939759037
 41
4.410715232919005
 42
4.440624159066582
  0
ELLIPSE
  5
255
330
455
100
AcDbEntity
  8
0
 62
    18
420
        0
100
AcDbEllipse
 10
-32.93006412202474
 20
-253.0932119392607
 30
0.0
 11
290.3248401940786
 21
0.0
 31
0.0
210
0.0
220
0.0
230
1.0
 40
0.8433734939759034
 41
1.269721650368851
 42
1.296362710985386
  0
SPLINE
  5
78
330
455
100
AcDbEntity
  8
0
 62
    18
420
        0
100
AcDbSpline
210
0.0
220
0.0
230
1.0
 70
     8
 71
     3
 72
     8
 73
     4
 74
     0
 42
0.000000001
 43
0.001
 40
0.0
 40
0.0
 40
0.0
 40
0.0
 40
1.0
 40
1.0
 40
1.0
 40
1.0
 10
45.74848754638891
 20
-17.4035924611111
 30
0.0
 10
32.96070267694445
 20
-14.35645112222222
 30
0.0
 10
11.95904559333334
 20
-7.626526036111108
 30
0.0
 10
5.73478127305556
 20
-4.581296047222222
 30
0.0
  0
SPLINE
  5
79
330
455
100
AcDbEntity
  8
0
 62
    18
420
        0
100
AcDbSpline
210
0.0
220
0.0
230
1.0
 70
     8
 71
     3
 72
     8
 73
     4
 74
     0
 42
0.000000001
 43
0.001
 40
0.0
 40
0.0
 40
0.0
 40
0.0
 40
1.0
 40
1.0
 40
1.0
 40
1.0
 10
5.73478127305556
 20
-4.581296047222222
 30
0.0
 10
3.67781638916667
 20
-3.574923352777777
 30
0.0
 10
0.9927133152777784
 20
-1.564373299999999
 30
0.0
 10
0.347258604722233
 20
-0.547228888888889
 30
0.0
  0
LINE
  5
7A
330
455
100
AcDbEntity
  8
0
 62
    18
420
        0
100
AcDbLine
 10
0.347258604722233
 20
-0.547228888888889
 30
0.0
 11
0.0
 21
0.0
 31
0.0
  0
SPLINE
  5
85
330
455
100
AcDbEntity
  8
0
 62
    18
420
        0
100
AcDbSpline
210
0.0
220
0.0
230
1.0
 70
     8
 71
     3
 72
     8
 73
     4
 74
     0
 42
0.000000001
 43
0.001
 40
0.0
 40
0.0
 40
0.0
 40
0.0
 40
1.0
 40
1.0
 40
1.0
 40
1.0
 10
850.4
 20
-51.99999999999999
 30
0.0
 10
849.5143485436113
 20
-53.96858967499999
 30
0.0
 10
847.9574428436111
 20
-54.50619760833332
 30
0.0
 10
845.8532542797224
 20
-53.73592355833333
 30
0.0
  0
ELLIPSE
  5
25A
330
455
100
AcDbEntity
  8
0
 62
    18
420
        0
100
AcDbEllipse
 10
862.0035609334725
 20
-30.14057749664265
 30
0.0
 11
32.30423961389273
 21
0.0
 31
0.0
210
0.0
220
0.0
230
1.0
 40
0.8433734939759037
 41
4.045783780219244
 42
4.188855013920715
  0
SPLINE
  5
87
330
455
100
AcDbEntity
  8
0
 62
    18
420
        0
100
AcDbSpline
210
0.0
220
0.0
230
1.0
 70
     8
 71
     3
 72
     8
 73
     4
 74
     0
 42
0.000000001
 43
0.001
 40
0.0
 40
0.0
 40
0.0
 40
0.0
 40
1.0
 40
1.0
 40
1.0
 40
1.0
 10
842.0291551630555
 20
-51.5527494611111
 30
0.0
 10
838.5546658797223
 20
-49.33646505277776
 30
0.0
 10
833.2412698658333
 20
-46.88628721388888
 30
0.0
 10
829.7883603519446
 20
-45.90812545277777
 30
0.0
  0
SPLINE
  5
88
330
455
100
AcDbEntity
  8
0
 62
    18
420
        0
100
AcDbSpline
210
0.0
220
0.0
230
1.0
 70
     8
 71
     3
 72
     8
 73
     4
 74
     0
 42
0.000000001
 43
0.001
 40
0.0
 40
0.0
 40
0.0
 40
0.0
 40
1.0
 40
1.0
 40
1.0
 40
1.0
 10
829.7883603519446
 20
-45.90812545277777
 30
0.0
 10
825.0328467630558
 20
-44.56095707777776
 30
0.0
 10
820.6969235352778
 20
-45.05320378611111
 30
0.0
 10
816.7553215491668
 20
-47.38773013333332
 30
0.0
  0
SPLINE
  5
89
330
455
100
AcDbEntity
  8
0
 62
    18
420
        0
100
AcDbSpline
210
0.0
220
0.0
230
1.0
 70
     8
 71
     3
 72
     8
 73
     4
 74
     0
 42
0.000000001
 43
0.001
 40
0.0
 40
0.0
 40
0.0
 40
0.0
 40
1.0
 40
1.0
 40
1.0
 40
1.0
 10
816.7553215491668
 20
-47.38773013333332
 30
0.0
 10
813.2739806158334
 20
-49.44965203888888
 30
0.0
 10
812.6219904852778
 20
-50.33174253333332
 30
0.0
 10
810.4392421908334
 20
-55.93291666666666
 30
0.0
  0
SPLINE
  5
8A
330
455
100
AcDbEntity
  8
0
 62
    18
420
        0
100
AcDbSpline
210
0.0
220
0.0
230
1.0
 70
     8
 71
     3
 72
     8
 73
     4
 74
     0
 42
0.000000001
 43
0.001
 40
0.0
 40
0.0
 40
0.0
 40
0.0
 40
1.0
 40
1.0
 40
1.0
 40
1.0
 10
810.4392421908334
 20
-55.93291666666666
 30
0.0
 10
808.3439841963889
 20
-61.30967756666666
 30
0.0
 10
807.7473928769444
 20
-65.26203821666665
 30
0.0
 10
808.1468674963888
 20
-71.11999999999999
 30
0.0
  0
SPLINE
  5
8B
330
455
100
AcDbEntity
  8
0
 62
    18
420
        0
100
AcDbSpline
210
0.0
220
0.0
230
1.0
 70
     8
 71
     3
 72
     8
 73
     4
 74
     0
 42
0.000000001
 43
0.001
 40
0.0
 40
0.0
 40
0.0
 40
0.0
 40
1.0
 40
1.0
 40
1.0
 40
1.0
 10
808.1468674963888
 20
-71.11999999999999
 30
0.0
 10
808.396952721389
 20
-74.78747072222221
 30
0.0
 10
808.6620881519444
 20
-76.30114385833332
 30
0.0
 10
809.898635293611
 20
-81.12124999999999
 30
0.0
  0
ELLIPSE
  5
25B
330
455
100
AcDbEntity
  8
0
 62
    18
420
        0
100
AcDbEllipse
 10
926.8246207499677
 20
-60.52008233059806
 30
0.0
 11
-119.4502793262371
 21
1.462844022341336E-14
 31
0.0
210
0.0
220
0.0
230
1.0
 40
0.8433734939759037
 41
0.2059487516240534
 42
0.2868546186745165
  0
ELLIPSE
  5
25C
330
455
100
AcDbEntity
  8
0
 62
    18
420
        0
100
AcDbEllipse
 10
762.380300261144
 20
-102.785651387746
 30
0.0
 11
52.47654994118101
 21
0.0
 31
0.0
210
0.0
220
0.0
230
1.0
 40
0.8433734939759037
 41
0.2080472157102119
 42
0.3162010269271632
  0
ELLIPSE
  5
25D
330
455
100
AcDbEntity
  8
0
 62
    18
420
        0
100
AcDbEllipse
 10
841.0662113713496
 20
-89.31737960336801
 30
0.0
 11
-27.81816260984272
 21
3.406742379830448E-15
 31
0.0
210
0.0
220
0.0
230
1.0
 40
0.8433734939759021
 41
0.1854921406601993
 42
0.3326270056374236
  0
ELLIPSE
  5
25E
330
455
100
AcDbEntity
  8
0
 62
    18
420
        0
100
AcDbEllipse
 10
759.7323097067784
 20
-115.9477067155229
 30
0.0
 11
59.45901078027477
 21
6.601276278969644E-15
 31
0.0
210
0.0
220
0.0
230
1.0
 40
0.8433734939759034
 41
0.3318553382643836
 42
0.3879451290883164
  0
ELLIPSE
  5
25F
330
455
100
AcDbEntity
  8
0
 62
    18
420
        0
100
AcDbEllipse
 10
843.5877149866026
 20
-91.18241210044121
 30
0.0
 11
29.3914409179663
 21
0.0
 31
0.0
210
0.0
220
0.0
230
1.0
 40
0.8433734939759049
 41
3.48850466162249
 42
3.630322657414081
  0
ELLIPSE
  5
260
330
455
100
AcDbEntity
  8
0
 62
    18
420
        0
100
AcDbEllipse
 10
799.3282210194463
 20
-111.431419928669
 30
0.0
 11
-20.96336533785205
 21
2.567271826035709E-15
 31
0.0
210
0.0
220
0.0
230
1.0
 40
0.8433734939759027
 41
3.494436092062209
 42
3.650296252518214
  0
ELLIPSE
  5
261
330
455
100
AcDbEntity
  8
0
 62
    18
420
        0
100
AcDbEllipse
 10
845.5710224262912
 20
-97.1335769405343
 30
0.0
 11
-28.28914695836733
 21
3.464421327317363E-15
 31
0.0
210
0.0
220
0.0
230
1.0
 40
0.8433734939759034
 41
0.3503241389840848
 42
0.6090118730042797
  0
ELLIPSE
  5
262
330
455
100
AcDbEntity
  8
0
 62
    18
420
        0
100
AcDbEllipse
 10
771.9966250929709
 20
-136.8016938439582
 30
0.0
 11
-59.06870106302318
 21
7.233829568662320E-15
 31
0.0
210
0.0
220
0.0
230
1.0
 40
0.8433734939759032
 41
3.575796834429668
 42
3.691147601163199
  0
LINE
  5
94
330
455
100
AcDbEntity
  8
0
 62
    18
420
        0
100
AcDbLine
 10
825.5840532213887
 20
-115.8442614388889
 30
0.0
 11
828.224954368611
 21
-120.6323611111111
 31
0.0
  0
ELLIPSE
  5
263
330
455
100
AcDbEntity
  8
0
 62
    18
420
        0
100
AcDbEllipse
 10
858.7005649196158
 20
-106.3101023588255
 30
0.0
 11
-34.88774555680653
 21
4.272516592561041E-15
 31
0.0
210
0.0
220
0.0
230
1.0
 40
0.8433734939759021
 41
0.5083816885794046
 42
0.7192444414164446
  0
ELLIPSE
  5
264
330
455
100
AcDbEntity
  8
0
 62
    18
420
        0
100
AcDbEllipse
 10
745.9798908016036
 20
-184.1535206461903
 30
0.0
 11
-110.8262928298243
 21
1.357230647754115E-14
 31
0.0
210
0.0
220
0.0
230
1.0
 40
0.8433734939759038
 41
3.634912284571876
 42
3.817290692052182
  0
ELLIPSE
  5
265
330
455
100
AcDbEntity
  8
0
 62
    18
420
        0
100
AcDbEllipse
 10
899.6365086865471
 20
-116.0130838196078
 30
0.0
 11
62.79034892095462
 21
0.0
 31
0.0
210
0.0
220
0.0
230
1.0
 40
0.8433734939759028
 41
3.609381653001085
 42
3.693942063394024
  0
SPLINE
  5
98
330
455
100
AcDbEntity
  8
0
 62
    18
420
        0
100
AcDbSpline
210
0.0
220
0.0
230
1.0
 70
     8
 71
     3
 72
     8
 73
     4
 74
     0
 42
0.000000001
 43
0.001
 40
0.0
 40
0.0
 40
0.0
 40
0.0
 40
1.0
 40
1.0
 40
1.0
 40
1.0
 10
846.183451104722
 20
-143.798350325
 30
0.0
 10
847.4642997269443
 20
-145.3816222833333
 30
0.0
 10
847.6164122130555
 20
-145.6874037111111
 30
0.0
 10
848.8657842380554
 20
-149.1901970611111
 30
0.0
  0
SPLINE
  5
99
330
455
100
AcDbEntity
  8
0
 62
    18
420
        0
100
AcDbSpline
210
0.0
220
0.0
230
1.0
 70
     8
 71
     3
 72
     8
 73
     4
 74
     0
 42
0.000000001
 43
0.001
 40
0.0
 40
0.0
 40
0.0
 40
0.0
 40
1.0
 40
1.0
 40
1.0
 40
1.0
 10
848.8657842380554
 20
-149.1901970611111
 30
0.0
 10
850.7275590825001
 20
-154.4100420527778
 30
0.0
 10
850.9005778852778
 20
-157.3609367944444
 30
0.0
 10
849.5930546769443
 20
-161.5945646972222
 30
0.0
  0
SPLINE
  5
9A
330
455
100
AcDbEntity
  8
0
 62
    18
420
        0
100
AcDbSpline
210
0.0
220
0.0
230
1.0
 70
     8
 71
     3
 72
     8
 73
     4
 74
     0
 42
0.000000001
 43
0.001
 40
0.0
 40
0.0
 40
0.0
 40
0.0
 40
1.0
 40
1.0
 40
1.0
 40
1.0
 10
849.5930546769443
 20
-161.5945646972222
 30
0.0
 10
849.0434000880555
 20
-163.374308125
 30
0.0
 10
848.655784093611
 20
-164.0027298777778
 30
0.0
 10
846.2096572019443
 20
-167.0799144777778
 30
0.0
  0
SPLINE
  5
9B
330
455
100
AcDbEntity
  8
0
 62
    18
420
        0
100
AcDbSpline
210
0.0
220
0.0
230
1.0
 70
     8
 71
     3
 72
     8
 73
     4
 74
     0
 42
0.000000001
 43
0.001
 40
0.0
 40
0.0
 40
0.0
 40
0.0
 40
1.0
 40
1.0
 40
1.0
 40
1.0
 10
846.2096572019443
 20
-167.0799144777778
 30
0.0
 10
843.703680854722
 20
-170.2323776222222
 30
0.0
 10
842.9908750102776
 20
-170.7363887638889
 30
0.0
 10
840.306785043611
 20
-171.2536534138889
 30
0.0
  0
SPLINE
  5
9C
330
455
100
AcDbEntity
  8
0
 62
    18
420
        0
100
AcDbSpline
210
0.0
220
0.0
230
1.0
 70
     8
 71
     3
 72
     8
 73
     4
 74
     0
 42
0.000000001
 43
0.001
 40
0.0
 40
0.0
 40
0.0
 40
0.0
 40
1.0
 40
1.0
 40
1.0
 40
1.0
 10
840.306785043611
 20
-171.2536534138889
 30
0.0
 10
835.4609702213888
 20
-172.1875133416667
 30
0.0
 10
831.6126268047221
 20
-170.8811772305556
 30
0.0
 10
823.9991845908332
 20
-165.7179689472222
 30
0.0
  0
ELLIPSE
  5
266
330
455
100
AcDbEntity
  8
0
 62
    18
420
        0
100
AcDbEllipse
 10
868.0472392886901
 20
-119.3401209865956
 30
0.0
 11
-70.45727543222925
 21
8.628527683472301E-15
 31
0.0
210
0.0
220
0.0
230
1.0
 40
0.8433734939759033
 41
0.8155982499941925
 42
0.8954419121828912
  0
ELLIPSE
  5
267
330
455
100
AcDbEntity
  8
0
 62
    18
420
        0
100
AcDbEllipse
 10
951.7540304112879
 20
-49.83689838718425
 30
0.0
 11
187.8920427625199
 21
0.0
 31
0.0
210
0.0
220
0.0
230
1.0
 40
0.8433734939759034
 41
3.848015523390568
 42
3.933437138887938
  0
SPLINE
  5
9F
330
455
100
AcDbEntity
  8
0
 62
    18
420
        0
100
AcDbSpline
210
0.0
220
0.0
230
1.0
 70
     8
 71
     3
 72
     8
 73
     4
 74
     0
 42
0.000000001
 43
0.001
 40
0.0
 40
0.0
 40
0.0
 40
0.0
 40
1.0
 40
1.0
 40
1.0
 40
1.0
 10
808.8266741547219
 20
-152.6980107916666
 30
0.0
 10
805.6538624352775
 20
-149.4019321666666
 30
0.0
 10
798.1398277074999
 20
-143.028476325
 30
0.0
 10
796.1589102824997
 20
-141.9531320472222
 30
0.0
  0
SPLINE
  5
A0
330
455
100
AcDbEntity
  8
0
 62
    18
420
        0
100
AcDbSpline
210
0.0
220
0.0
230
1.0
 70
     8
 71
     3
 72
     8
 73
     4
 74
     0
 42
0.000000001
 43
0.001
 40
0.0
 40
0.0
 40
0.0
 40
0.0
 40
1.0
 40
1.0
 40
1.0
 40
1.0
 10
796.1589102824997
 20
-141.9531320472222
 30
0.0
 10
793.7499989769444
 20
-140.6454426805556
 30
0.0
 10
792.0621213519444
 20
-140.18263175
 30
0.0
 10
790.1816069519443
 20
-140.3141568305555
 30
0.0
  0
SPLINE
  5
A1
330
455
100
AcDbEntity
  8
0
 62
    18
420
        0
100
AcDbSpline
210
0.0
220
0.0
230
1.0
 70
     8
 71
     3
 72
     8
 73
     4
 74
     0
 42
0.000000001
 43
0.001
 40
0.0
 40
0.0
 40
0.0
 40
0.0
 40
1.0
 40
1.0
 40
1.0
 40
1.0
 10
790.1816069519443
 20
-140.3141568305555
 30
0.0
 10
787.3355076713887
 20
-140.5132088694444
 30
0.0
 10
785.4961324519443
 20
-142.0676821666667
 30
0.0
 10
784.9139764463886
 20
-144.7658811277778
 30
0.0
  0
SPLINE
  5
A2
330
455
100
AcDbEntity
  8
0
 62
    18
420
        0
100
AcDbSpline
210
0.0
220
0.0
230
1.0
 70
     8
 71
     3
 72
     8
 73
     4
 74
     0
 42
0.000000001
 43
0.001
 40
0.0
 40
0.0
 40
0.0
 40
0.0
 40
1.0
 40
1.0
 40
1.0
 40
1.0
 10
784.9139764463886
 20
-144.7658811277778
 30
0.0
 10
784.6901558797219
 20
-145.8032305333333
 30
0.0
 10
785.860470404722
 20
-152.8831573888889
 30
0.0
 10
786.8435943380553
 20
-156.4393055555556
 30
0.0
  0
ELLIPSE
  5
268
330
455
100
AcDbEntity
  8
0
 62
    18
420
        0
100
AcDbEllipse
 10
880.1532624166525
 20
-136.6600767307667
 30
0.0
 11
96.21182140571673
 21
0.0
 31
0.0
210
0.0
220
0.0
230
1.0
 40
0.8433734939759034
 41
3.387832722023605
 42
3.457535424547711
  0
SPLINE
  5
A4
330
455
100
AcDbEntity
  8
0
 62
    18
420
        0
100
AcDbSpline
210
0.0
220
0.0
230
1.0
 70
     8
 71
     3
 72
     8
 73
     4
 74
     0
 42
0.000000001
 43
0.001
 40
0.0
 40
0.0
 40
0.0
 40
0.0
 40
1.0
 40
1.0
 40
1.0
 40
1.0
 10
788.7035537880552
 20
-161.8720833333333
 30
0.0
 10
790.1262667019441
 20
-165.5391046166667
 30
0.0
 10
791.9379425158331
 20
-172.9285837416667
 30
0.0
 10
792.2063573686107
 20
-176.1593505
 30
0.0
  0
ELLIPSE
  5
269
330
455
100
AcDbEntity
  8
0
 62
    18
420
        0
100
AcDbEllipse
 10
814.2832017985634
 20
-174.7831119460835
 30
0.0
 11
-22.13707106066579
 21
2.711009321694187E-15
 31
0.0
210
0.0
220
0.0
230
1.0
 40
0.8433734939759014
 41
0.073781539698554
 42
0.2755940439144524
  0
SPLINE
  5
A6
330
455
100
AcDbEntity
  8
0
 62
    18
420
        0
100
AcDbSpline
210
0.0
220
0.0
230
1.0
 70
     8
 71
     3
 72
     8
 73
     4
 74
     0
 42
0.000000001
 43
0.001
 40
0.0
 40
0.0
 40
0.0
 40
0.0
 40
1.0
 40
1.0
 40
1.0
 40
1.0
 10
792.981501515833
 20
-179.8635171666667
 30
0.0
 10
793.473649093611
 20
-181.1216620694444
 30
0.0
 10
793.6228628047219
 20
-182.4558214111111
 30
0.0
 10
793.8554675380552
 20
-187.6777777777778
 30
0.0
  0
ELLIPSE
  5
26A
330
455
100
AcDbEntity
  8
0
 62
    18
420
        0
100
AcDbEllipse
 10
683.50716774369
 20
-192.5647322753288
 30
0.0
 11
-110.5003342340684
 21
1.353238806244645E-14
 31
0.0
210
0.0
220
0.0
230
1.0
 40
0.843373493975904
 41
3.11850989019793
 42
3.194055759502442
  0
ELLIPSE
  5
26B
330
455
100
AcDbEntity
  8
0
 62
    18
420
        0
100
AcDbEllipse
 10
912.9149103929714
 20
-204.0300630946074
 30
0.0
 11
119.4485121294448
 21
0.0
 31
0.0
210
0.0
220
0.0
230
1.0
 40
0.8433734939759037
 41
3.049000654098923
 42
3.104278759035158
  0
SPLINE
  5
A9
330
455
100
AcDbEntity
  8
0
 62
    18
420
        0
100
AcDbSpline
210
0.0
220
0.0
230
1.0
 70
     8
 71
     3
 72
     8
 73
     4
 74
     0
 42
0.000000001
 43
0.001
 40
0.0
 40
0.0
 40
0.0
 40
0.0
 40
1.0
 40
1.0
 40
1.0
 40
1.0
 10
793.5495442936111
 20
-200.2719444444445
 30
0.0
 10
793.2406637130554
 20
-205.76825115
 30
0.0
 10
792.6592690019443
 20
-209.1564721555556
 30
0.0
 10
791.6288569713887
 20
-211.465252075
 30
0.0
  0
ELLIPSE
  5
26C
330
455
100
AcDbEntity
  8
0
 62
    18
420
        0
100
AcDbEllipse
 10
812.9061183672907
 20
-217.6524331545217
 30
0.0
 11
22.50649036092023
 21
0.0
 31
0.0
210
0.0
220
0.0
230
1.0
 40
0.8433734939759033
 41
2.809565012572468
 42
3.001643050550449
  0
ELLIPSE
  5
26D
330
455
100
AcDbEntity
  8
0
 62
    18
420
        0
100
AcDbEllipse
 10
757.886506282818
 20
-210.54112505387
 30
0.0
 11
33.15826501316718
 21
0.0
 31
0.0
210
0.0
220
0.0
230
1.0
 40
0.8433734939759037
 41
5.960463344659718
 42
6.122887094240183
  0
SPLINE
  5
AC
330
455
100
AcDbEntity
  8
0
 62
    18
420
        0
100
AcDbSpline
210
0.0
220
0.0
230
1.0
 70
     8
 71
     3
 72
     8
 73
     4
 74
     0
 42
0.000000001
 43
0.001
 40
0.0
 40
0.0
 40
0.0
 40
0.0
 40
1.0
 40
1.0
 40
1.0
 40
1.0
 10
789.3329978908331
 20
-219.4101388888889
 30
0.0
 10
787.9732381713886
 20
-222.79126765
 30
0.0
 10
783.7018785686109
 20
-230.9764042444445
 30
0.0
 10
782.4723587602775
 20
-232.557132675
 30
0.0
  0
ELLIPSE
  5
26E
330
455
100
AcDbEntity
  8
0
 62
    18
420
        0
100
AcDbEllipse
 10
843.4708614431261
 20
-263.2783544809593
 30
0.0
 11
71.0472652742629
 21
0.0
 31
0.0
210
0.0
220
0.0
230
1.0
 40
0.843373493975903
 41
2.603255235508274
 42
2.689798929738666
  0
SPLINE
  5
AE
330
455
100
AcDbEntity
  8
0
 62
    18
420
        0
100
AcDbSpline
210
0.0
220
0.0
230
1.0
 70
     8
 71
     3
 72
     8
 73
     4
 74
     0
 42
0.000000001
 43
0.001
 40
0.0
 40
0.0
 40
0.0
 40
0.0
 40
1.0
 40
1.0
 40
1.0
 40
1.0
 10
779.5520918324999
 20
-237.1187521888889
 30
0.0
 10
777.9554231380554
 20
-239.84486575
 30
0.0
 10
777.336695718611
 20
-240.6335322222222
 30
0.0
 10
775.8204314297222
 20
-241.8752429722222
 30
0.0
  0
ELLIPSE
  5
26F
330
455
100
AcDbEntity
  8
0
 62
    18
420
        0
100
AcDbEllipse
 10
809.2721554970701
 20
-269.2767634898165
 30
0.0
 11
-46.63305980794991
 21
5.710902742825294E-15
 31
0.0
210
0.0
220
0.0
230
1.0
 40
0.8433734939759039
 41
5.512364806057444
 42
5.642775720900842
  0
ELLIPSE
  5
270
330
455
100
AcDbEntity
  8
0
 62
    18
420
        0
100
AcDbEllipse
 10
757.3843009316247
 20
-237.3876400207714
 30
0.0
 11
-17.57983799139026
 21
2.152909232568511E-15
 31
0.0
210
0.0
220
0.0
230
1.0
 40
0.8433734939759051
 41
2.015668007737039
 42
2.540165460077504
  0
SPLINE
  5
B1
330
455
100
AcDbEntity
  8
0
 62
    18
420
        0
100
AcDbSpline
210
0.0
220
0.0
230
1.0
 70
     8
 71
     3
 72
     8
 73
     4
 74
     0
 42
0.000000001
 43
0.001
 40
0.0
 40
0.0
 40
0.0
 40
0.0
 40
1.0
 40
1.0
 40
1.0
 40
1.0
 10
764.9496445324999
 20
-250.770898
 30
0.0
 10
763.3712176241665
 20
-251.4787148611111
 30
0.0
 10
760.4932610991665
 20
-251.60544675
 30
0.0
 10
758.6453359574999
 20
-251.0485129444444
 30
0.0
  0
LINE
  5
B2
330
455
100
AcDbEntity
  8
0
 62
    18
420
        0
100
AcDbLine
 10
758.6453359574999
 20
-251.0485129444444
 30
0.0
 11
758.6453359574999
 21
-251.0485129444444
 31
0.0
  0
ELLIPSE
  5
271
330
455
100
AcDbEntity
  8
0
 62
    18
420
        0
100
AcDbEllipse
 10
757.879890207173
 20
-185.8546177749208
 30
0.0
 11
-3.98440510285701
 21
4.879488955720218E-16
 31
0.0
210
0.0
220
0.0
230
1.0
 40
0.8433734939758982
 41
2.419449188333155
 42
2.925765083812904
  0
SPLINE
  5
B4
330
455
100
AcDbEntity
  8
0
 62
    18
420
        0
100
AcDbSpline
210
0.0
220
0.0
230
1.0
 70
     8
 71
     3
 72
     8
 73
     4
 74
     0
 42
0.000000001
 43
0.001
 40
0.0
 40
0.0
 40
0.0
 40
0.0
 40
1.0
 40
1.0
 40
1.0
 40
1.0
 10
761.7718551186109
 20
-186.5742546694444
 30
0.0
 10
762.0674423269443
 20
-185.2454639
 30
0.0
 10
760.5919072908333
 20
-177.3960976666667
 30
0.0
 10
758.5209228769443
 20
-169.2804166666667
 30
0.0
  0
LINE
  5
B5
330
455
100
AcDbEntity
  8
0
 62
    18
420
        0
100
AcDbLine
 10
758.5209228769443
 20
-169.2804166666667
 30
0.0
 11
756.6220202880555
 21
-161.5016666666667
 31
0.0
  0
SPLINE
  5
B6
330
455
100
AcDbEntity
  8
0
 62
    18
420
        0
100
AcDbSpline
210
0.0
220
0.0
230
1.0
 70
     8
 71
     3
 72
     8
 73
     4
 74
     0
 42
0.000000001
 43
0.001
 40
0.0
 40
0.0
 40
0.0
 40
0.0
 40
1.0
 40
1.0
 40
1.0
 40
1.0
 10
756.6220202880555
 20
-161.5016666666667
 30
0.0
 10
755.1560014324998
 20
-155.2014125666667
 30
0.0
 10
753.7535506630555
 20
-150.7985956166667
 30
0.0
 10
749.132200579722
 20
-137.9881920472222
 30
0.0
  0
ELLIPSE
  5
272
330
455
100
AcDbEntity
  8
0
 62
    18
420
        0
100
AcDbEllipse
 10
543.103128980363
 20
-189.9619759329529
 30
0.0
 11
215.0482489422843
 21
0.0
 31
0.0
210
0.0
220
0.0
230
1.0
 40
0.8433734939759033
 41
0.2906432102331705
 42
0.4278785314555308
  0
LINE
  5
B8
330
455
100
AcDbEntity
  8
0
 62
    18
420
        0
100
AcDbLine
 10
738.7643657852776
 20
-114.7056944444445
 30
0.0
 11
736.1127186741666
 21
-109.5634171722222
 31
0.0
  0
SPLINE
  5
B9
330
455
100
AcDbEntity
  8
0
 62
    18
420
        0
100
AcDbSpline
210
0.0
220
0.0
230
1.0
 70
     8
 71
     3
 72
     8
 73
     4
 74
     0
 42
0.000000001
 43
0.001
 40
0.0
 40
0.0
 40
0.0
 40
0.0
 40
1.0
 40
1.0
 40
1.0
 40
1.0
 10
736.1127186741666
 20
-109.5634171722222
 30
0.0
 10
731.363500404722
 20
-100.1305196888889
 30
0.0
 10
721.4781798852777
 20
-86.45618838888889
 30
0.0
 10
711.9812073741666
 20
-76.18236111111112
 30
0.0
  0
SPLINE
  5
BA
330
455
100
AcDbEntity
  8
0
 62
    18
420
        0
100
AcDbSpline
210
0.0
220
0.0
230
1.0
 70
     8
 71
     3
 72
     8
 73
     4
 74
     0
 42
0.000000001
 43
0.001
 40
0.0
 40
0.0
 40
0.0
 40
0.0
 40
1.0
 40
1.0
 40
1.0
 40
1.0
 10
711.9812073741666
 20
-76.18236111111112
 30
0.0
 10
709.5270576102777
 20
-73.52744657222225
 30
0.0
 10
699.4656731102775
 20
-64.65336708055557
 30
0.0
 10
696.5319371269442
 20
-62.55616916111113
 30
0.0
  0
SPLINE
  5
BB
330
455
100
AcDbEntity
  8
0
 62
    18
420
        0
100
AcDbSpline
210
0.0
220
0.0
230
1.0
 70
     8
 71
     3
 72
     8
 73
     4
 74
     0
 42
0.000000001
 43
0.001
 40
0.0
 40
0.0
 40
0.0
 40
0.0
 40
1.0
 40
1.0
 40
1.0
 40
1.0
 10
696.5319371269442
 20
-62.55616916111113
 30
0.0
 10
685.8551631908332
 20
-54.92387203333335
 30
0.0
 10
671.1904654297219
 20
-47.78526870833335
 30
0.0
 10
660.8833877880554
 20
-45.20285458888892
 30
0.0
  0
SPLINE
  5
BC
330
455
100
AcDbEntity
  8
0
 62
    18
420
        0
100
AcDbSpline
210
0.0
220
0.0
230
1.0
 70
     8
 71
     3
 72
     8
 73
     4
 74
     0
 42
0.000000001
 43
0.001
 40
0.0
 40
0.0
 40
0.0
 40
0.0
 40
1.0
 40
1.0
 40
1.0
 40
1.0
 10
660.8833877880554
 20
-45.20285458888892
 30
0.0
 10
654.9505909019442
 20
-43.71640954722225
 30
0.0
 10
646.2388057686109
 20
-42.60567072222226
 30
0.0
 10
644.0864214102776
 20
-43.06127087500003
 30
0.0
  0
ELLIPSE
  5
273
330
455
100
AcDbEntity
  8
0
 62
    18
420
        0
100
AcDbEllipse
 10
644.835888020569
 20
-45.010666729143
 30
0.0
 11
2.429895619955118
 21
0.0
 31
0.0
210
0.0
220
0.0
230
1.0
 40
0.8433734939758758
 41
1.884344467004534
 42
2.522630230987316
  0
SPLINE
  5
BE
330
455
100
AcDbEntity
  8
0
 62
    18
420
        0
100
AcDbSpline
210
0.0
220
0.0
230
1.0
 70
     8
 71
     3
 72
     8
 73
     4
 74
     0
 42
0.000000001
 43
0.001
 40
0.0
 40
0.0
 40
0.0
 40
0.0
 40
1.0
 40
1.0
 40
1.0
 40
1.0
 10
642.856784479722
 20
-43.82167702500004
 30
0.0
 10
642.431308726944
 20
-44.36934300555559
 30
0.0
 10
642.432245704722
 20
-44.4921756416667
 30
0.0
 10
642.867911090833
 20
-45.26643043611115
 30
0.0
  0
ELLIPSE
  5
274
330
455
100
AcDbEntity
  8
0
 62
    18
420
        0
100
AcDbEllipse
 10
651.907280173415
 20
-40.12820612222227
 30
0.0
 11
10.90084102412925
 21
1.210236469276676E-15
 31
0.0
210
0.0
220
0.0
230
1.0
 40
0.8433734939759039
 41
3.734649778712918
 42
4.06150713313888
  0
LINE
  5
C0
330
455
100
AcDbEntity
  8
0
 62
    18
420
        0
100
AcDbLine
 10
645.3025892852775
 20
-47.4420776666667
 30
0.0
 11
661.7611895630553
 21
-59.11475385277782
 31
0.0
  0
SPLINE
  5
C1
330
455
100
AcDbEntity
  8
0
 62
    18
420
        0
100
AcDbSpline
210
0.0
220
0.0
230
1.0
 70
     8
 71
     3
 72
     8
 73
     4
 74
     0
 42
0.000000001
 43
0.001
 40
0.0
 40
0.0
 40
0.0
 40
0.0
 40
1.0
 40
1.0
 40
1.0
 40
1.0
 10
661.7611895630553
 20
-59.11475385277782
 30
0.0
 10
666.2557841213886
 20
-62.41676408333336
 30
0.0
 10
679.7058073158331
 20
-73.6454144027778
 30
0.0
 10
682.5010755519442
 20
-76.4293055555556
 30
0.0
  0
ELLIPSE
  5
275
330
455
100
AcDbEntity
  8
0
 62
    18
420
        0
100
AcDbEllipse
 10
885.2968278451799
 20
69.62676368175387
 30
0.0
 11
-266.6790120864861
 21
3.265875985514936E-14
 31
0.0
210
0.0
220
0.0
230
1.0
 40
0.8433734939759037
 41
0.706792287991087
 42
0.7345580596935958
  0
SPLINE
  5
C3
330
455
100
AcDbEntity
  8
0
 62
    18
420
        0
100
AcDbSpline
210
0.0
220
0.0
230
1.0
 70
     8
 71
     3
 72
     8
 73
     4
 74
     0
 42
0.000000001
 43
0.001
 40
0.0
 40
0.0
 40
0.0
 40
0.0
 40
1.0
 40
1.0
 40
1.0
 40
1.0
 10
687.3871218574997
 20
-81.12125000000003
 30
0.0
 10
690.8069736241664
 20
-84.30271430000005
 30
0.0
 10
698.0691370130553
 20
-92.01846136388892
 30
0.0
 10
705.6326851602774
 20
-100.5063888888889
 30
0.0
  0
SPLINE
  5
C4
330
455
100
AcDbEntity
  8
0
 62
    18
420
        0
100
AcDbSpline
210
0.0
220
0.0
230
1.0
 70
     8
 71
     3
 72
     8
 73
     4
 74
     0
 42
0.000000001
 43
0.001
 40
0.0
 40
0.0
 40
0.0
 40
0.0
 40
1.0
 40
1.0
 40
1.0
 40
1.0
 10
705.6326851602774
 20
-100.5063888888889
 30
0.0
 10
710.9047663102774
 20
-106.4228048916667
 30
0.0
 10
722.5899625797219
 20
-122.0870466277778
 30
0.0
 10
729.0990300797218
 20
-131.9635575805556
 30
0.0
  0
SPLINE
  5
C5
330
455
100
AcDbEntity
  8
0
 62
    18
420
        0
100
AcDbSpline
210
0.0
220
0.0
230
1.0
 70
     8
 71
     3
 72
     8
 73
     4
 74
     0
 42
0.000000001
 43
0.001
 40
0.0
 40
0.0
 40
0.0
 40
0.0
 40
1.0
 40
1.0
 40
1.0
 40
1.0
 10
729.0990300797218
 20
-131.9635575805556
 30
0.0
 10
732.5679560574996
 20
-137.2271314944445
 30
0.0
 10
742.1192732797219
 20
-153.8016228
 30
0.0
 10
745.1958105324995
 20
-159.8965277777778
 30
0.0
  0
LINE
  5
C6
330
455
100
AcDbEntity
  8
0
 62
    18
420
        0
100
AcDbLine
 10
745.1958105324995
 20
-159.8965277777778
 30
0.0
 11
749.7492297269439
 21
-169.5273611111111
 31
0.0
  0
LINE
  5
C7
330
455
100
AcDbEntity
  8
0
 62
    18
420
        0
100
AcDbLine
 10
749.7492297269439
 20
-169.5273611111111
 30
0.0
 11
753.0254896491662
 21
-176.8122222222223
 31
0.0
  0
SPLINE
  5
C8
330
455
100
AcDbEntity
  8
0
 62
    18
420
        0
100
AcDbSpline
210
0.0
220
0.0
230
1.0
 70
     8
 71
     3
 72
     8
 73
     4
 74
     0
 42
0.000000001
 43
0.001
 40
0.0
 40
0.0
 40
0.0
 40
0.0
 40
1.0
 40
1.0
 40
1.0
 40
1.0
 10
753.0254896491662
 20
-176.8122222222223
 30
0.0
 10
754.974725513055
 20
-180.9415284444445
 30
0.0
 10
756.0161470324996
 20
-183.6359269305556
 30
0.0
 10
756.3555379519439
 20
-185.4277212472223
 30
0.0
  0
SPLINE
  5
C9
330
455
100
AcDbEntity
  8
0
 62
    18
420
        0
100
AcDbSpline
210
0.0
220
0.0
230
1.0
 70
     8
 71
     3
 72
     8
 73
     4
 74
     0
 42
0.000000001
 43
0.001
 40
0.0
 40
0.0
 40
0.0
 40
0.0
 40
1.0
 40
1.0
 40
1.0
 40
1.0
 10
756.3555379519439
 20
-185.4277212472223
 30
0.0
 10
756.6780632713884
 20
-187.1304278861111
 30
0.0
 10
757.1266413824993
 20
-187.8519946138889
 30
0.0
 10
758.1649006019439
 20
-188.3382973694445
 30
0.0
  0
ELLIPSE
  5
276
330
455
100
AcDbEntity
  8
0
 62
    18
420
        0
100
AcDbEllipse
 10
759.3375667624391
 20
-186.8894997345286
 30
0.0
 11
2.079949298679537
 21
0.0
 31
0.0
210
0.0
220
0.0
230
1.0
 40
0.8433734939758992
 41
4.113414776011211
 42
5.540505314431478
  0
LINE
  5
CB
330
455
100
AcDbEntity
  8
0
 62
    18
420
        0
100
AcDbLine
 10
760.8697797630549
 20
-188.0757855472222
 30
0.0
 11
760.8697504824999
 21
-188.0757855472222
 31
0.0
  0
SPLINE
  5
CC
330
455
100
AcDbEntity
  8
0
 62
    18
420
        0
100
AcDbSpline
210
0.0
220
0.0
230
1.0
 70
     8
 71
     3
 72
     8
 73
     4
 74
     0
 42
0.000000001
 43
0.001
 40
0.0
 40
0.0
 40
0.0
 40
0.0
 40
1.0
 40
1.0
 40
1.0
 40
1.0
 10
548.481571768611
 20
-156.1556133083333
 30
0.0
 10
548.7665886963888
 20
-155.8659672305555
 30
0.0
 10
548.8609892075
 20
-155.1354092555555
 30
0.0
 10
548.8086648547222
 20
-153.6244327527778
 30
0.0
  0
ELLIPSE
  5
277
330
455
100
AcDbEntity
  8
0
 62
    18
420
        0
100
AcDbEllipse
 10
418.8049347592078
 20
-159.1761259596329
 30
0.0
 11
130.1702810435473
 21
0.0
 31
0.0
210
0.0
220
0.0
230
1.0
 40
0.8433734939759034
 41
0.0505916621563699
 42
0.1479900286885995
  0
ELLIPSE
  5
278
330
455
100
AcDbEntity
  8
0
 62
    18
420
        0
100
AcDbEllipse
 10
772.3800355552794
 20
-113.2163567016359
 30
0.0
 11
227.5822242448974
 21
0.0
 31
0.0
210
0.0
220
0.0
230
1.0
 40
0.8433734939759034
 41
3.259629729025412
 42
3.297336845276315
  0
LINE
  5
CF
330
455
100
AcDbEntity
  8
0
 62
    18
420
        0
100
AcDbLine
 10
546.3813946408333
 20
-135.8194444444444
 30
0.0
 11
542.009661293611
 21
-114.45875
 31
0.0
  0
LINE
  5
D0
330
455
100
AcDbEntity
  8
0
 62
    18
420
        0
100
AcDbLine
 10
542.009661293611
 20
-114.45875
 30
0.0
 11
540.3794078019445
 21
-107.5443055555555
 31
0.0
  0
SPLINE
  5
D1
330
455
100
AcDbEntity
  8
0
 62
    18
420
        0
100
AcDbSpline
210
0.0
220
0.0
230
1.0
 70
     8
 71
     3
 72
     8
 73
     4
 74
     0
 42
0.000000001
 43
0.001
 40
0.0
 40
0.0
 40
0.0
 40
0.0
 40
1.0
 40
1.0
 40
1.0
 40
1.0
 10
540.3794078019445
 20
-107.5443055555555
 30
0.0
 10
538.6167183575
 20
-98.88070175277777
 30
0.0
 10
530.5848277241666
 20
-77.68798385833333
 30
0.0
 10
525.9459385880555
 20
-69.46052098611109
 30
0.0
  0
SPLINE
  5
D2
330
455
100
AcDbEntity
  8
0
 62
    18
420
        0
100
AcDbSpline
210
0.0
220
0.0
230
1.0
 70
     8
 71
     3
 72
     8
 73
     4
 74
     0
 42
0.000000001
 43
0.001
 40
0.0
 40
0.0
 40
0.0
 40
0.0
 40
1.0
 40
1.0
 40
1.0
 40
1.0
 10
525.9459385880555
 20
-69.46052098611109
 30
0.0
 10
522.4330624963889
 20
-63.23013981666664
 30
0.0
 10
516.8945282908333
 20
-55.28821880555554
 30
0.0
 10
513.0901642686111
 20
-51.02615771944443
 30
0.0
  0
ELLIPSE
  5
279
330
455
100
AcDbEntity
  8
0
 62
    18
420
        0
100
AcDbEllipse
 10
411.643529165466
 20
-116.8838314034565
 30
0.0
 11
128.0203716964421
 21
0.0
 31
0.0
210
0.0
220
0.0
230
1.0
 40
0.8433734939759039
 41
0.6560207444995043
 42
0.8805870968657409
  0
ELLIPSE
  5
27A
330
455
100
AcDbEntity
  8
0
 62
    18
420
        0
100
AcDbEllipse
 10
388.5889135933035
 20
-146.0324074729092
 30
0.0
 11
169.4030873100803
 21
0.0
 31
0.0
210
0.0
220
0.0
230
1.0
 40
0.8433734939759036
 41
0.9055466763527288
 42
0.9947840832485045
  0
SPLINE
  5
D5
330
455
100
AcDbEntity
  8
0
 62
    18
420
        0
100
AcDbSpline
210
0.0
220
0.0
230
1.0
 70
     8
 71
     3
 72
     8
 73
     4
 74
     0
 42
0.000000001
 43
0.001
 40
0.0
 40
0.0
 40
0.0
 40
0.0
 40
1.0
 40
1.0
 40
1.0
 40
1.0
 10
480.8600612297221
 20
-26.21565185555556
 30
0.0
 10
475.4790271324998
 20
-23.46226328055555
 30
0.0
 10
465.1356123213887
 20
-19.33022091388889
 30
0.0
 10
460.1645352825
 20
-17.94807285833333
 30
0.0
  0
SPLINE
  5
D6
330
455
100
AcDbEntity
  8
0
 62
    18
420
        0
100
AcDbSpline
210
0.0
220
0.0
230
1.0
 70
     8
 71
     3
 72
     8
 73
     4
 74
     0
 42
0.000000001
 43
0.001
 40
0.0
 40
0.0
 40
0.0
 40
0.0
 40
1.0
 40
1.0
 40
1.0
 40
1.0
 10
460.1645352825
 20
-17.94807285833333
 30
0.0
 10
450.1654012436111
 20
-15.16793526111111
 30
0.0
 10
443.2075213880556
 20
-13.80445373611111
 30
0.0
 10
438.6915227436111
 20
-13.74016175
 30
0.0
  0
SPLINE
  5
D7
330
455
100
AcDbEntity
  8
0
 62
    18
420
        0
100
AcDbSpline
210
0.0
220
0.0
230
1.0
 70
     8
 71
     3
 72
     8
 73
     4
 74
     0
 42
0.000000001
 43
0.001
 40
0.0
 40
0.0
 40
0.0
 40
0.0
 40
1.0
 40
1.0
 40
1.0
 40
1.0
 10
438.6915227436111
 20
-13.74016175
 30
0.0
 10
436.4464947074999
 20
-13.7082022
 30
0.0
 10
436.2053986130555
 20
-13.75270652777778
 30
0.0
 10
435.6834727102777
 20
-14.29545831388889
 30
0.0
  0
SPLINE
  5
D8
330
455
100
AcDbEntity
  8
0
 62
    18
420
        0
100
AcDbSpline
210
0.0
220
0.0
230
1.0
 70
     8
 71
     3
 72
     8
 73
     4
 74
     0
 42
0.000000001
 43
0.001
 40
0.0
 40
0.0
 40
0.0
 40
0.0
 40
1.0
 40
1.0
 40
1.0
 40
1.0
 10
435.6834727102777
 20
-14.29545831388889
 30
0.0
 10
434.5123383297222
 20
-15.51339572222222
 30
0.0
 10
435.6523181991665
 20
-16.54841150277778
 30
0.0
 10
441.5118551352776
 20
-19.58710734166667
 30
0.0
  0
SPLINE
  5
D9
330
455
100
AcDbEntity
  8
0
 62
    18
420
        0
100
AcDbSpline
210
0.0
220
0.0
230
1.0
 70
     8
 71
     3
 72
     8
 73
     4
 74
     0
 42
0.000000001
 43
0.001
 40
0.0
 40
0.0
 40
0.0
 40
0.0
 40
1.0
 40
1.0
 40
1.0
 40
1.0
 10
441.5118551352776
 20
-19.58710734166667
 30
0.0
 10
457.3618883463889
 20
-27.80679146388889
 30
0.0
 10
464.8545775491667
 20
-32.622810675
 30
0.0
 10
480.152496604722
 20
-44.42391278888888
 30
0.0
  0
SPLINE
  5
DA
330
455
100
AcDbEntity
  8
0
 62
    18
420
        0
100
AcDbSpline
210
0.0
220
0.0
230
1.0
 70
     8
 71
     3
 72
     8
 73
     4
 74
     0
 42
0.000000001
 43
0.001
 40
0.0
 40
0.0
 40
0.0
 40
0.0
 40
1.0
 40
1.0
 40
1.0
 40
1.0
 10
480.152496604722
 20
-44.42391278888888
 30
0.0
 10
484.9518724658332
 20
-48.12623478055554
 30
0.0
 10
492.3511566963889
 20
-55.23979546944444
 30
0.0
 10
497.3894911713887
 20
-60.99527777777777
 30
0.0
  0
LINE
  5
DB
330
455
100
AcDbEntity
  8
0
 62
    18
420
        0
100
AcDbLine
 10
497.3894911713887
 20
-60.99527777777777
 30
0.0
 11
510.7962962658333
 21
-78.12353212222222
 31
0.0
  0
SPLINE
  5
DC
330
455
100
AcDbEntity
  8
0
 62
    18
420
        0
100
AcDbSpline
210
0.0
220
0.0
230
1.0
 70
     8
 71
     3
 72
     8
 73
     4
 74
     0
 42
0.000000001
 43
0.001
 40
0.0
 40
0.0
 40
0.0
 40
0.0
 40
1.0
 40
1.0
 40
1.0
 40
1.0
 10
510.7962962658333
 20
-78.12353212222222
 30
0.0
 10
514.0558955519444
 20
-82.78093891666667
 30
0.0
 10
520.6642826963887
 20
-94.35423971944444
 30
0.0
 10
524.6317394130555
 20
-102.3536543361111
 30
0.0
  0
SPLINE
  5
DD
330
455
100
AcDbEntity
  8
0
 62
    18
420
        0
100
AcDbSpline
210
0.0
220
0.0
230
1.0
 70
     8
 71
     3
 72
     8
 73
     4
 74
     0
 42
0.000000001
 43
0.001
 40
0.0
 40
0.0
 40
0.0
 40
0.0
 40
1.0
 40
1.0
 40
1.0
 40
1.0
 10
524.6317394130555
 20
-102.3536543361111
 30
0.0
 10
528.7680863741665
 20
-110.6935040944444
 30
0.0
 10
537.5719295741666
 20
-132.1367940472222
 30
0.0
 10
540.247264654722
 20
-140.3879166666667
 30
0.0
  0
SPLINE
  5
DE
330
455
100
AcDbEntity
  8
0
 62
    18
420
        0
100
AcDbSpline
210
0.0
220
0.0
230
1.0
 70
     8
 71
     3
 72
     8
 73
     4
 74
     0
 42
0.000000001
 43
0.001
 40
0.0
 40
0.0
 40
0.0
 40
0.0
 40
1.0
 40
1.0
 40
1.0
 40
1.0
 10
540.247264654722
 20
-140.3879166666667
 30
0.0
 10
541.829205229722
 20
-145.2669165888888
 30
0.0
 10
545.1534267019445
 20
-153.758306275
 30
0.0
 10
546.083230743611
 20
-155.2954292555555
 30
0.0
  0
SPLINE
  5
DF
330
455
100
AcDbEntity
  8
0
 62
    18
420
        0
100
AcDbSpline
210
0.0
220
0.0
230
1.0
 70
     8
 71
     3
 72
     8
 73
     4
 74
     0
 42
0.000000001
 43
0.001
 40
0.0
 40
0.0
 40
0.0
 40
0.0
 40
1.0
 40
1.0
 40
1.0
 40
1.0
 10
546.083230743611
 20
-155.2954292555555
 30
0.0
 10
546.8676861074998
 20
-156.5922530666666
 30
0.0
 10
547.742969754722
 20
-156.9061811916666
 30
0.0
 10
548.481571768611
 20
-156.1556133083333
 30
0.0
  0
LINE
  5
E0
330
455
100
AcDbEntity
  8
0
 62
    18
420
        0
100
AcDbLine
 10
548.481571768611
 20
-156.1556133083333
 30
0.0
 11
548.481571768611
 21
-156.1556133083333
 31
0.0
  0
SPLINE
  5
E1
330
455
100
AcDbEntity
  8
0
 62
    18
420
        0
100
AcDbSpline
210
0.0
220
0.0
230
1.0
 70
     8
 71
     3
 72
     8
 73
     4
 74
     0
 42
0.000000001
 43
0.001
 40
0.0
 40
0.0
 40
0.0
 40
0.0
 40
1.0
 40
1.0
 40
1.0
 40
1.0
 10
812.8488269491666
 20
-133.35
 30
0.0
 10
813.7088261463888
 20
-132.6247019416666
 30
0.0
 10
813.586931193611
 20
-131.2945900194444
 30
0.0
 10
812.4521632630556
 20
-129.0209749888889
 30
0.0
  0
ELLIPSE
  5
27B
330
455
100
AcDbEntity
  8
0
 62
    18
420
        0
100
AcDbEllipse
 10
941.8294886487178
 20
-85.52162603892921
 30
0.0
 11
139.2794375420741
 21
0.0
 31
0.0
210
0.0
220
0.0
230
1.0
 40
0.8433734939759032
 41
3.46835553477236
 42
3.520944891627152
  0
LINE
  5
E3
330
455
100
AcDbEntity
  8
0
 62
    18
420
        0
100
AcDbLine
 10
809.9198344158334
 20
-123.2252777777778
 30
0.0
 11
806.6283486047224
 21
-115.4465277777777
 31
0.0
  0
LINE
  5
E4
330
455
100
AcDbEntity
  8
0
 62
    18
420
        0
100
AcDbLine
 10
806.6283486047224
 20
-115.4465277777777
 30
0.0
 11
803.7740507686113
 21
-108.7790277777778
 31
0.0
  0
ELLIPSE
  5
27C
330
455
100
AcDbEntity
  8
0
 62
    18
420
        0
100
AcDbEllipse
 10
536.521573487962
 20
-189.344400927715
 30
0.0
 11
283.8122487143826
 21
0.0
 31
0.0
210
0.0
220
0.0
230
1.0
 40
0.8433734939759034
 41
0.3432900608330313
 42
0.4059343448168971
  0
SPLINE
  5
E6
330
455
100
AcDbEntity
  8
0
 62
    18
420
        0
100
AcDbSpline
210
0.0
220
0.0
230
1.0
 70
     8
 71
     3
 72
     8
 73
     4
 74
     0
 42
0.000000001
 43
0.001
 40
0.0
 40
0.0
 40
0.0
 40
0.0
 40
1.0
 40
1.0
 40
1.0
 40
1.0
 10
797.2694924741669
 20
-94.82666666666664
 30
0.0
 10
789.2431065852779
 20
-78.59878905277776
 30
0.0
 10
783.9111759797224
 20
-69.57492787777777
 30
0.0
 10
776.4040514630558
 20
-59.5136111111111
 30
0.0
  0
ELLIPSE
  5
27D
330
455
100
AcDbEntity
  8
0
 62
    18
420
        0
100
AcDbEllipse
 10
932.7306825547389
 20
23.98212036664808
 30
0.0
 11
185.0389898141965
 21
0.0
 31
0.0
210
0.0
220
0.0
230
1.0
 40
0.8433734939759036
 41
3.667000097183843
 42
3.706140201878183
  0
SPLINE
  5
E8
330
455
100
AcDbEntity
  8
0
 62
    18
420
        0
100
AcDbSpline
210
0.0
220
0.0
230
1.0
 70
     8
 71
     3
 72
     8
 73
     4
 74
     0
 42
0.000000001
 43
0.001
 40
0.0
 40
0.0
 40
0.0
 40
0.0
 40
1.0
 40
1.0
 40
1.0
 40
1.0
 10
772.6498157519445
 20
-54.29068178333333
 30
0.0
 10
771.507610560278
 20
-52.5579417611111
 30
0.0
 10
766.7991215436112
 20
-47.01119912222222
 30
0.0
 10
762.5481119269446
 20
-42.39058704999999
 30
0.0
  0
SPLINE
  5
E9
330
455
100
AcDbEntity
  8
0
 62
    18
420
        0
100
AcDbSpline
210
0.0
220
0.0
230
1.0
 70
     8
 71
     3
 72
     8
 73
     4
 74
     0
 42
0.000000001
 43
0.001
 40
0.0
 40
0.0
 40
0.0
 40
0.0
 40
1.0
 40
1.0
 40
1.0
 40
1.0
 10
762.5481119269446
 20
-42.39058704999999
 30
0.0
 10
757.6262262213891
 20
-37.04076531944444
 30
0.0
 10
748.7013079241667
 20
-29.97892961388888
 30
0.0
 10
742.1362852825
 20
-26.23977091944444
 30
0.0
  0
ELLIPSE
  5
27E
330
455
100
AcDbEntity
  8
0
 62
    18
420
        0
100
AcDbEllipse
 10
712.5837484164841
 20
-63.30199686635549
 30
0.0
 11
52.9578510180724
 21
0.0
 31
0.0
210
0.0
220
0.0
230
1.0
 40
0.8433734939759043
 41
0.9787758008549301
 42
1.219643235357257
  0
SPLINE
  5
EB
330
455
100
AcDbEntity
  8
0
 62
    18
420
        0
100
AcDbSpline
210
0.0
220
0.0
230
1.0
 70
     8
 71
     3
 72
     8
 73
     4
 74
     0
 42
0.000000001
 43
0.001
 40
0.0
 40
0.0
 40
0.0
 40
0.0
 40
1.0
 40
1.0
 40
1.0
 40
1.0
 10
730.8002303575
 20
-21.36424797499999
 30
0.0
 10
726.5637146158335
 20
-20.12220631944444
 30
0.0
 10
724.102683921389
 20
-19.73617535555555
 30
0.0
 10
720.0383085658334
 20
-19.67615797777777
 30
0.0
  0
SPLINE
  5
EC
330
455
100
AcDbEntity
  8
0
 62
    18
420
        0
100
AcDbSpline
210
0.0
220
0.0
230
1.0
 70
     8
 71
     3
 72
     8
 73
     4
 74
     0
 42
0.000000001
 43
0.001
 40
0.0
 40
0.0
 40
0.0
 40
0.0
 40
1.0
 40
1.0
 40
1.0
 40
1.0
 10
720.0383085658334
 20
-19.67615797777777
 30
0.0
 10
717.1033135186112
 20
-19.63281428888888
 30
0.0
 10
717.0419707547225
 20
-19.64359341388888
 30
0.0
 10
716.345562021389
 20
-20.32495017777777
 30
0.0
  0
SPLINE
  5
ED
330
455
100
AcDbEntity
  8
0
 62
    18
420
        0
100
AcDbSpline
210
0.0
220
0.0
230
1.0
 70
     8
 71
     3
 72
     8
 73
     4
 74
     0
 42
0.000000001
 43
0.001
 40
0.0
 40
0.0
 40
0.0
 40
0.0
 40
1.0
 40
1.0
 40
1.0
 40
1.0
 10
716.345562021389
 20
-20.32495017777777
 30
0.0
 10
715.003692721389
 20
-21.63782537777777
 30
0.0
 10
715.5336707769445
 20
-22.45650547777777
 30
0.0
 10
719.6512489019444
 20
-25.4312846861111
 30
0.0
  0
ELLIPSE
  5
27F
330
455
100
AcDbEntity
  8
0
 62
    18
420
        0
100
AcDbEllipse
 10
609.4991141183332
 20
-136.3692661727761
 30
0.0
 11
-171.5705731481078
 21
2.101133532337070E-14
 31
0.0
210
0.0
220
0.0
230
1.0
 40
0.843373493975904
 41
3.890554737064555
 42
4.015255896129295
  0
ELLIPSE
  5
280
330
455
100
AcDbEntity
  8
0
 62
    18
420
        0
100
AcDbEllipse
 10
558.1468133230063
 20
-181.0094657253676
 30
0.0
 11
245.2495326337528
 21
0.0
 31
0.0
210
0.0
220
0.0
230
1.0
 40
0.8433734939759037
 41
0.6426741792837009
 42
0.7644628333747385
  0
SPLINE
  5
F0
330
455
100
AcDbEntity
  8
0
 62
    18
420
        0
100
AcDbSpline
210
0.0
220
0.0
230
1.0
 70
     8
 71
     3
 72
     8
 73
     4
 74
     0
 42
0.000000001
 43
0.001
 40
0.0
 40
0.0
 40
0.0
 40
0.0
 40
1.0
 40
1.0
 40
1.0
 40
1.0
 10
754.4680547797223
 20
-57.04416666666665
 30
0.0
 10
760.2254611380556
 20
-63.37425412499999
 30
0.0
 10
771.9776220380555
 20
-78.30988380833332
 30
0.0
 10
775.6477639936112
 20
-83.9611111111111
 30
0.0
  0
ELLIPSE
  5
281
330
455
100
AcDbEntity
  8
0
 62
    18
420
        0
100
AcDbEllipse
 10
921.632936287634
 20
-19.22190631547988
 30
0.0
 11
164.9366723147131
 21
0.0
 31
0.0
210
0.0
220
0.0
230
1.0
 40
0.8433734939759037
 41
3.625683745074114
 42
3.694419611555825
  0
ELLIPSE
  5
282
330
455
100
AcDbEntity
  8
0
 62
    18
420
        0
100
AcDbEllipse
 10
553.8224499050781
 20
-211.9798502220818
 30
0.0
 11
268.103156486882
 21
0.0
 31
0.0
210
0.0
220
0.0
230
1.0
 40
0.8433734939759034
 41
0.4887494245033381
 42
0.5579572919328818
  0
ELLIPSE
  5
283
330
455
100
AcDbEntity
  8
0
 62
    18
420
        0
100
AcDbEllipse
 10
838.9505663242389
 20
-85.71559840286903
 30
0.0
 11
53.96251850296954
 21
0.0
 31
0.0
210
0.0
220
0.0
230
1.0
 40
0.8433734939759042
 41
3.599038349597113
 42
3.701595226940808
  0
ELLIPSE
  5
284
330
455
100
AcDbEntity
  8
0
 62
    18
420
        0
100
AcDbEllipse
 10
759.5185623046391
 20
-128.4449503359956
 30
0.0
 11
40.25576531276916
 21
0.0
 31
0.0
210
0.0
220
0.0
230
1.0
 40
0.8433734939759033
 41
0.4718851220625267
 42
0.5782018818022691
  0
ELLIPSE
  5
285
330
455
100
AcDbEntity
  8
0
 62
    18
420
        0
100
AcDbEllipse
 10
876.9504017920193
 20
-76.79783778307426
 30
0.0
 11
92.18671627583582
 21
0.0
 31
0.0
210
0.0
220
0.0
230
1.0
 40
0.8433734939759026
 41
3.626121759747604
 42
3.691917019423238
  0
ELLIPSE
  5
286
330
455
100
AcDbEntity
  8
0
 62
    18
420
        0
100
AcDbEllipse
 10
718.381013095551
 20
-159.1062034119131
 30
0.0
 11
-94.00927074973281
 21
1.151281525138372E-14
 31
0.0
210
0.0
220
0.0
230
1.0
 40
0.843373493975904
 41
3.635828665328455
 42
3.6946706139046
  0
ELLIPSE
  5
287
330
455
100
AcDbEntity
  8
0
 62
    18
420
        0
100
AcDbEllipse
 10
845.5146507234834
 20
-101.2149942984724
 30
0.0
 11
50.47177582544934
 21
5.603492761513324E-15
 31
0.0
210
0.0
220
0.0
230
1.0
 40
0.8433734939759041
 41
3.638227507600131
 42
3.731605785926808
  0
ELLIPSE
  5
288
330
455
100
AcDbEntity
  8
0
 62
    18
420
        0
100
AcDbEllipse
 10
785.8725769445776
 20
-135.0445223917157
 30
0.0
 11
21.40459804772865
 21
0.0
 31
0.0
210
0.0
220
0.0
230
1.0
 40
0.8433734939759076
 41
0.3869923518053378
 42
0.596897316207377
  0
SPLINE
  5
F9
330
455
100
AcDbEntity
  8
0
 62
    18
420
        0
100
AcDbSpline
210
0.0
220
0.0
230
1.0
 70
     8
 71
     3
 72
     8
 73
     4
 74
     0
 42
0.000000001
 43
0.001
 40
0.0
 40
0.0
 40
0.0
 40
0.0
 40
1.0
 40
1.0
 40
1.0
 40
1.0
 10
805.6942696019446
 20
-128.2315825
 30
0.0
 10
806.7941643908334
 20
-131.0653959416667
 30
0.0
 10
808.2546785019443
 20
-132.8243417083333
 30
0.0
 10
810.067174171389
 20
-133.4980481333333
 30
0.0
  0
SPLINE
  5
FA
330
455
100
AcDbEntity
  8
0
 62
    18
420
        0
100
AcDbSpline
210
0.0
220
0.0
230
1.0
 70
     8
 71
     3
 72
     8
 73
     4
 74
     0
 42
0.000000001
 43
0.001
 40
0.0
 40
0.0
 40
0.0
 40
0.0
 40
1.0
 40
1.0
 40
1.0
 40
1.0
 10
810.067174171389
 20
-133.4980481333333
 30
0.0
 10
811.3194156908334
 20
-133.9635063083333
 30
0.0
 10
812.1754034519446
 20
-133.9179499972222
 30
0.0
 10
812.8488269491666
 20
-133.35
 30
0.0
  0
LINE
  5
FB
330
455
100
AcDbEntity
  8
0
 62
    18
420
        0
100
AcDbLine
 10
812.8488269491666
 20
-133.35
 30
0.0
 11
812.8488269491666
 21
-133.35
 31
0.0
  0
ELLIPSE
  5
289
330
455
100
AcDbEntity
  8
0
 62
    18
420
        0
100
AcDbEllipse
 10
630.0697606540924
 20
-126.3200084584855
 30
0.0
 11
3.979527106061937
 21
0.0
 31
0.0
210
0.0
220
0.0
230
1.0
 40
0.8433734939758992
 41
5.586803691345672
 42
5.891011965992471
  0
SPLINE
  5
FD
330
455
100
AcDbEntity
  8
0
 62
    18
420
        0
100
AcDbSpline
210
0.0
220
0.0
230
1.0
 70
     8
 71
     3
 72
     8
 73
     4
 74
     0
 42
0.000000001
 43
0.001
 40
0.0
 40
0.0
 40
0.0
 40
0.0
 40
1.0
 40
1.0
 40
1.0
 40
1.0
 10
633.7471644380556
 20
-127.6027508194444
 30
0.0
 10
633.973444571389
 20
-127.0652490722222
 30
0.0
 10
632.2832830630556
 20
-119.4412690333333
 30
0.0
 10
630.7239470769445
 20
-113.9654735333333
 30
0.0
  0
LINE
  5
FE
330
455
100
AcDbEntity
  8
0
 62
    18
420
        0
100
AcDbLine
 10
630.7239470769445
 20
-113.9654735333333
 30
0.0
 11
628.5094000991667
 21
-105.4012154805555
 31
0.0
  0
SPLINE
  5
FF
330
455
100
AcDbEntity
  8
0
 62
    18
420
        0
100
AcDbSpline
210
0.0
220
0.0
230
1.0
 70
     8
 71
     3
 72
     8
 73
     4
 74
     0
 42
0.000000001
 43
0.001
 40
0.0
 40
0.0
 40
0.0
 40
0.0
 40
1.0
 40
1.0
 40
1.0
 40
1.0
 10
628.5094000991667
 20
-105.4012154805555
 30
0.0
 10
627.2289614047222
 20
-99.95607319444441
 30
0.0
 10
624.9046123436111
 20
-92.97658358333332
 30
0.0
 10
621.4926077658334
 20
-84.33152777777777
 30
0.0
  0
SPLINE
  5
100
330
455
100
AcDbEntity
  8
0
 62
    18
420
        0
100
AcDbSpline
210
0.0
220
0.0
230
1.0
 70
     8
 71
     3
 72
     8
 73
     4
 74
     0
 42
0.000000001
 43
0.001
 40
0.0
 40
0.0
 40
0.0
 40
0.0
 40
1.0
 40
1.0
 40
1.0
 40
1.0
 10
621.4926077658334
 20
-84.33152777777777
 30
0.0
 10
618.4600791880556
 20
-76.64789089999998
 30
0.0
 10
617.729500046389
 20
-75.11792930833332
 30
0.0
 10
614.1816044102777
 20
-69.02097222222221
 30
0.0
  0
SPLINE
  5
101
330
455
100
AcDbEntity
  8
0
 62
    18
420
        0
100
AcDbSpline
210
0.0
220
0.0
230
1.0
 70
     8
 71
     3
 72
     8
 73
     4
 74
     0
 42
0.000000001
 43
0.001
 40
0.0
 40
0.0
 40
0.0
 40
0.0
 40
1.0
 40
1.0
 40
1.0
 40
1.0
 10
614.1816044102777
 20
-69.02097222222221
 30
0.0
 10
610.9107613908334
 20
-63.40011661666665
 30
0.0
 10
606.6134299352778
 20
-57.28735261666666
 30
0.0
 10
603.3708719325002
 20
-53.64319591944443
 30
0.0
  0
SPLINE
  5
102
330
455
100
AcDbEntity
  8
0
 62
    18
420
        0
100
AcDbSpline
210
0.0
220
0.0
230
1.0
 70
     8
 71
     3
 72
     8
 73
     4
 74
     0
 42
0.000000001
 43
0.001
 40
0.0
 40
0.0
 40
0.0
 40
0.0
 40
1.0
 40
1.0
 40
1.0
 40
1.0
 10
603.3708719325002
 20
-53.64319591944443
 30
0.0
 10
600.3666283713889
 20
-50.26687022777777
 30
0.0
 10
595.0294858269446
 20
-45.20572902222221
 30
0.0
 10
592.6146305686112
 20
-43.44317786666666
 30
0.0
  0
SPLINE
  5
103
330
455
100
AcDbEntity
  8
0
 62
    18
420
        0
100
AcDbSpline
210
0.0
220
0.0
230
1.0
 70
     8
 71
     3
 72
     8
 73
     4
 74
     0
 42
0.000000001
 43
0.001
 40
0.0
 40
0.0
 40
0.0
 40
0.0
 40
1.0
 40
1.0
 40
1.0
 40
1.0
 10
592.6146305686112
 20
-43.44317786666666
 30
0.0
 10
586.5509788797224
 20
-39.01746422777777
 30
0.0
 10
578.1028651491669
 20
-34.21468617777777
 30
0.0
 10
572.0162575047224
 20
-31.73293155277777
 30
0.0
  0
SPLINE
  5
104
330
455
100
AcDbEntity
  8
0
 62
    18
420
        0
100
AcDbSpline
210
0.0
220
0.0
230
1.0
 70
     8
 71
     3
 72
     8
 73
     4
 74
     0
 42
0.000000001
 43
0.001
 40
0.0
 40
0.0
 40
0.0
 40
0.0
 40
1.0
 40
1.0
 40
1.0
 40
1.0
 10
572.0162575047224
 20
-31.73293155277777
 30
0.0
 10
565.2092017908335
 20
-28.95741181666666
 30
0.0
 10
555.870432121389
 20
-26.39304686666667
 30
0.0
 10
549.0310213936111
 20
-25.42132541666666
 30
0.0
  0
SPLINE
  5
105
330
455
100
AcDbEntity
  8
0
 62
    18
420
        0
100
AcDbSpline
210
0.0
220
0.0
230
1.0
 70
     8
 71
     3
 72
     8
 73
     4
 74
     0
 42
0.000000001
 43
0.001
 40
0.0
 40
0.0
 40
0.0
 40
0.0
 40
1.0
 40
1.0
 40
1.0
 40
1.0
 10
549.0310213936111
 20
-25.42132541666666
 30
0.0
 10
546.3937510352779
 20
-25.04662920277778
 30
0.0
 10
544.8465079186112
 20
-25.77035175555555
 30
0.0
 10
545.3611722436111
 20
-27.13791774166667
 30
0.0
  0
SPLINE
  5
106
330
455
100
AcDbEntity
  8
0
 62
    18
420
        0
100
AcDbSpline
210
0.0
220
0.0
230
1.0
 70
     8
 71
     3
 72
     8
 73
     4
 74
     0
 42
0.000000001
 43
0.001
 40
0.0
 40
0.0
 40
0.0
 40
0.0
 40
1.0
 40
1.0
 40
1.0
 40
1.0
 10
545.3611722436111
 20
-27.13791774166667
 30
0.0
 10
545.5690934686113
 20
-27.69037444444444
 30
0.0
 10
548.9669262575001
 20
-30.46541016944445
 30
0.0
 10
553.8594435658334
 20
-34.07853088888889
 30
0.0
  0
LINE
  5
107
330
455
100
AcDbEntity
  8
0
 62
    18
420
        0
100
AcDbLine
 10
553.8594435658334
 20
-34.07853088888889
 30
0.0
 11
575.350463646389
 21
-51.73486111111111
 31
0.0
  0
LINE
  5
108
330
455
100
AcDbEntity
  8
0
 62
    18
420
        0
100
AcDbLine
 10
575.350463646389
 20
-51.73486111111111
 30
0.0
 11
598.9975574352779
 21
-76.92319444444443
 31
0.0
  0
ELLIPSE
  5
23C
330
455
100
AcDbEntity
  8
0
 62
    18
420
        0
100
AcDbEllipse
 10
472.5757894386568
 20
-151.8840912425881
 30
0.0
 11
154.5396712918564
 21
0.0
 31
0.0
210
0.0
220
0.0
230
1.0
 40
0.8433734939759034
 41
0.5097805442265325
 42
0.6127773292838281
  0
LINE
  5
10A
330
455
100
AcDbEntity
  8
0
 62
    18
420
        0
100
AcDbLine
 10
607.465991871389
 20
-88.28263888888887
 30
0.0
 11
612.2927157713889
 21
-95.32055555555554
 31
0.0
  0
SPLINE
  5
10B
330
455
100
AcDbEntity
  8
0
 62
    18
420
        0
100
AcDbSpline
210
0.0
220
0.0
230
1.0
 70
     8
 71
     3
 72
     8
 73
     4
 74
     0
 42
0.000000001
 43
0.001
 40
0.0
 40
0.0
 40
0.0
 40
0.0
 40
1.0
 40
1.0
 40
1.0
 40
1.0
 10
612.2927157713889
 20
-95.32055555555554
 30
0.0
 10
615.5886815075
 20
-100.1020099527778
 30
0.0
 10
621.9005737463889
 20
-111.1780856472222
 30
0.0
 10
624.6765753769445
 20
-117.0516666666666
 30
0.0
  0
SPLINE
  5
10C
330
455
100
AcDbEntity
  8
0
 62
    18
420
        0
100
AcDbSpline
210
0.0
220
0.0
230
1.0
 70
     8
 71
     3
 72
     8
 73
     4
 74
     0
 42
0.000000001
 43
0.001
 40
0.0
 40
0.0
 40
0.0
 40
0.0
 40
1.0
 40
1.0
 40
1.0
 40
1.0
 10
624.6765753769445
 20
-117.0516666666666
 30
0.0
 10
629.7922983602778
 20
-127.8757997611111
 30
0.0
 10
630.4249047630556
 20
-128.905
 30
0.0
 10
631.9622803325
 20
-128.905
 30
0.0
  0
ELLIPSE
  5
23D
330
455
100
AcDbEntity
  8
0
 62
    18
420
        0
100
AcDbEllipse
 10
631.8899966226488
 20
-127.4426505845826
 30
0.0
 11
1.735434613815414
 21
0.0
 31
0.0
210
0.0
220
0.0
230
1.0
 40
0.8433734939759043
 41
4.75405268004711
 42
5.502355440129132
  0
LINE
  5
10E
330
455
100
AcDbEntity
  8
0
 62
    18
420
        0
100
AcDbLine
 10
633.1227273102779
 20
-128.4728472222222
 30
0.0
 11
633.1227273102779
 21
-128.4728472222222
 31
0.0
  0
SPLINE
  5
10F
330
455
100
AcDbEntity
  8
0
 62
    18
420
        0
100
AcDbSpline
210
0.0
220
0.0
230
1.0
 70
     8
 71
     3
 72
     8
 73
     4
 74
     0
 42
0.000000001
 43
0.001
 40
0.0
 40
0.0
 40
0.0
 40
0.0
 40
1.0
 40
1.0
 40
1.0
 40
1.0
 10
348.8954082741667
 20
-111.621706525
 30
0.0
 10
349.3447183991667
 20
-111.2029825861111
 30
0.0
 10
349.3934998047223
 20
-110.8664590444444
 30
0.0
 10
349.2265127963889
 20
-109.3374704138889
 30
0.0
  0
SPLINE
  5
110
330
455
100
AcDbEntity
  8
0
 62
    18
420
        0
100
AcDbSpline
210
0.0
220
0.0
230
1.0
 70
     8
 71
     3
 72
     8
 73
     4
 74
     0
 42
0.000000001
 43
0.001
 40
0.0
 40
0.0
 40
0.0
 40
0.0
 40
1.0
 40
1.0
 40
1.0
 40
1.0
 10
349.2265127963889
 20
-109.3374704138889
 30
0.0
 10
348.4428480075
 20
-102.162124225
 30
0.0
 10
342.4716057519444
 20
-84.30274887222221
 30
0.0
 10
337.4806764963889
 20
-74.20680555555555
 30
0.0
  0
SPLINE
  5
111
330
455
100
AcDbEntity
  8
0
 62
    18
420
        0
100
AcDbSpline
210
0.0
220
0.0
230
1.0
 70
     8
 71
     3
 72
     8
 73
     4
 74
     0
 42
0.000000001
 43
0.001
 40
0.0
 40
0.0
 40
0.0
 40
0.0
 40
1.0
 40
1.0
 40
1.0
 40
1.0
 10
337.4806764963889
 20
-74.20680555555555
 30
0.0
 10
334.0640455908334
 20
-67.29547014166666
 30
0.0
 10
331.2961839547222
 20
-63.10613419444444
 30
0.0
 10
325.0808589880555
 20
-55.43902777777777
 30
0.0
  0
ELLIPSE
  5
23E
330
455
100
AcDbEntity
  8
0
 62
    18
420
        0
100
AcDbEllipse
 10
284.6482625996394
 20
-77.35724701228534
 30
0.0
 11
48.06464138933009
 21
0.0
 31
0.0
210
0.0
220
0.0
230
1.0
 40
0.8433734939759028
 41
0.5712738160037812
 42
0.8119810414855534
  0
ELLIPSE
  5
23F
330
455
100
AcDbEntity
  8
0
 62
    18
420
        0
100
AcDbEllipse
 10
258.0352105439974
 20
-97.37991651721568
 30
0.0
 11
83.65685912427929
 21
0.0
 31
0.0
210
0.0
220
0.0
230
1.0
 40
0.8433734939759036
 41
0.7763947800847736
 42
1.057411518840749
  0
SPLINE
  5
114
330
455
100
AcDbEntity
  8
0
 62
    18
420
        0
100
AcDbSpline
210
0.0
220
0.0
230
1.0
 70
     8
 71
     3
 72
     8
 73
     4
 74
     0
 42
0.000000001
 43
0.001
 40
0.0
 40
0.0
 40
0.0
 40
0.0
 40
1.0
 40
1.0
 40
1.0
 40
1.0
 10
299.1214797269444
 20
-35.92125502777778
 30
0.0
 10
286.9364936547221
 20
-30.09733700555554
 30
0.0
 10
277.3454134380555
 20
-27.60630714722221
 30
0.0
 10
262.0815769491666
 20
-26.30110698055556
 30
0.0
  0
SPLINE
  5
115
330
455
100
AcDbEntity
  8
0
 62
    18
420
        0
100
AcDbSpline
210
0.0
220
0.0
230
1.0
 70
     8
 71
     3
 72
     8
 73
     4
 74
     0
 42
0.000000001
 43
0.001
 40
0.0
 40
0.0
 40
0.0
 40
0.0
 40
1.0
 40
1.0
 40
1.0
 40
1.0
 10
262.0815769491666
 20
-26.30110698055556
 30
0.0
 10
251.7759340547222
 20
-25.41987585277776
 30
0.0
 10
246.0721989547222
 20
-25.550815675
 30
0.0
 10
244.6192685075
 20
-26.70198671388888
 30
0.0
  0
ELLIPSE
  5
240
330
455
100
AcDbEntity
  8
0
 62
    18
420
        0
100
AcDbEllipse
 10
245.9943153327074
 20
-28.11869967896087
 30
0.0
 11
2.170838146412891
 21
2.410114492882188E-16
 31
0.0
210
0.0
220
0.0
230
1.0
 40
0.8433734939759101
 41
2.256758028082836
 42
2.830568648558326
  0
SPLINE
  5
117
330
455
100
AcDbEntity
  8
0
 62
    18
420
        0
100
AcDbSpline
210
0.0
220
0.0
230
1.0
 70
     8
 71
     3
 72
     8
 73
     4
 74
     0
 42
0.000000001
 43
0.001
 40
0.0
 40
0.0
 40
0.0
 40
0.0
 40
1.0
 40
1.0
 40
1.0
 40
1.0
 10
243.9276325047222
 20
-27.55840486388889
 30
0.0
 10
243.9276325047222
 20
-28.40105833055555
 30
0.0
 10
245.5726141158333
 20
-29.38650989166665
 30
0.0
 10
249.6916562686111
 20
-31.01143890833333
 30
0.0
  0
SPLINE
  5
118
330
455
100
AcDbEntity
  8
0
 62
    18
420
        0
100
AcDbSpline
210
0.0
220
0.0
230
1.0
 70
     8
 71
     3
 72
     8
 73
     4
 74
     0
 42
0.000000001
 43
0.001
 40
0.0
 40
0.0
 40
0.0
 40
0.0
 40
1.0
 40
1.0
 40
1.0
 40
1.0
 10
249.6916562686111
 20
-31.01143890833333
 30
0.0
 10
270.1066159325
 20
-39.06497633888888
 30
0.0
 10
286.0449592991666
 20
-47.69800594999998
 30
0.0
 10
299.5822385491666
 20
-58.03475467222221
 30
0.0
  0
ELLIPSE
  5
241
330
455
100
AcDbEntity
  8
0
 62
    18
420
        0
100
AcDbEllipse
 10
160.6978327412518
 20
-186.8929795855754
 30
0.0
 11
206.4784936589505
 21
0.0
 31
0.0
210
0.0
220
0.0
230
1.0
 40
0.8433734939759033
 41
0.6762019887671636
 42
0.8330340166303991
  0
ELLIPSE
  5
242
330
455
100
AcDbEntity
  8
0
 62
    18
420
        0
100
AcDbEllipse
 10
136.8245151884267
 20
-195.9877303320795
 30
0.0
 11
231.9394186297729
 21
0.0
 31
0.0
210
0.0
220
0.0
230
1.0
 40
0.8433734939759036
 41
0.562706886357805
 42
0.6480447906476071
  0
LINE
  5
11B
330
455
100
AcDbEntity
  8
0
 62
    18
420
        0
100
AcDbLine
 10
333.0021569630555
 20
-91.6333317472222
 30
0.0
 11
342.3714662519444
 21
-105.6922222222222
 31
0.0
  0
SPLINE
  5
11C
330
455
100
AcDbEntity
  8
0
 62
    18
420
        0
100
AcDbSpline
210
0.0
220
0.0
230
1.0
 70
     8
 71
     3
 72
     8
 73
     4
 74
     0
 42
0.000000001
 43
0.001
 40
0.0
 40
0.0
 40
0.0
 40
0.0
 40
1.0
 40
1.0
 40
1.0
 40
1.0
 10
342.3714662519444
 20
-105.6922222222222
 30
0.0
 10
346.2338057741666
 20
-111.846756875
 30
0.0
 10
347.4589920602776
 20
-112.960318275
 30
0.0
 10
348.8954082741666
 20
-111.621706525
 30
0.0
  0
LINE
  5
11D
330
455
100
AcDbEntity
  8
0
 62
    18
420
        0
100
AcDbLine
 10
348.8954082741666
 20
-111.621706525
 30
0.0
 11
348.8954082741667
 21
-111.621706525
 31
0.0
  0
SPLINE
  5
11E
330
455
100
AcDbEntity
  8
0
 62
    18
420
        0
100
AcDbSpline
210
0.0
220
0.0
230
1.0
 70
     8
 71
     3
 72
     8
 73
     4
 74
     0
 42
0.000000001
 43
0.001
 40
0.0
 40
0.0
 40
0.0
 40
0.0
 40
1.0
 40
1.0
 40
1.0
 40
1.0
 10
421.2893858436112
 20
-86.45625753333333
 30
0.0
 10
421.6493024325001
 20
-85.73085575833332
 30
0.0
 10
421.6937795963889
 20
-84.90400426666665
 30
0.0
 10
421.529867046389
 20
-81.98555555555554
 30
0.0
  0
SPLINE
  5
11F
330
455
100
AcDbEntity
  8
0
 62
    18
420
        0
100
AcDbSpline
210
0.0
220
0.0
230
1.0
 70
     8
 71
     3
 72
     8
 73
     4
 74
     0
 42
0.000000001
 43
0.001
 40
0.0
 40
0.0
 40
0.0
 40
0.0
 40
1.0
 40
1.0
 40
1.0
 40
1.0
 10
421.529867046389
 20
-81.98555555555554
 30
0.0
 10
421.2564452186111
 20
-77.1174952722222
 30
0.0
 10
420.7245053658334
 20
-74.09153929722221
 30
0.0
 10
419.1711133325001
 20
-68.56777977777777
 30
0.0
  0
SPLINE
  5
120
330
455
100
AcDbEntity
  8
0
 62
    18
420
        0
100
AcDbSpline
210
0.0
220
0.0
230
1.0
 70
     8
 71
     3
 72
     8
 73
     4
 74
     0
 42
0.000000001
 43
0.001
 40
0.0
 40
0.0
 40
0.0
 40
0.0
 40
1.0
 40
1.0
 40
1.0
 40
1.0
 10
419.1711133325001
 20
-68.56777977777777
 30
0.0
 10
415.2936357630556
 20
-54.77976019444444
 30
0.0
 10
409.3843511630557
 20
-44.76398245277777
 30
0.0
 10
400.0158617297224
 20
-36.10111948333333
 30
0.0
  0
SPLINE
  5
121
330
455
100
AcDbEntity
  8
0
 62
    18
420
        0
100
AcDbSpline
210
0.0
220
0.0
230
1.0
 70
     8
 71
     3
 72
     8
 73
     4
 74
     0
 42
0.000000001
 43
0.001
 40
0.0
 40
0.0
 40
0.0
 40
0.0
 40
1.0
 40
1.0
 40
1.0
 40
1.0
 10
400.0158617297224
 20
-36.10111948333333
 30
0.0
 10
396.0965715269447
 20
-32.47701714444443
 30
0.0
 10
388.3935308130557
 20
-27.24965516388888
 30
0.0
 10
383.3965990436113
 20
-24.82311484722222
 30
0.0
  0
SPLINE
  5
122
330
455
100
AcDbEntity
  8
0
 62
    18
420
        0
100
AcDbSpline
210
0.0
220
0.0
230
1.0
 70
     8
 71
     3
 72
     8
 73
     4
 74
     0
 42
0.000000001
 43
0.001
 40
0.0
 40
0.0
 40
0.0
 40
0.0
 40
1.0
 40
1.0
 40
1.0
 40
1.0
 10
383.3965990436113
 20
-24.82311484722222
 30
0.0
 10
375.8593448352779
 20
-21.16296849722222
 30
0.0
 10
366.3635142658334
 20
-18.77828279444444
 30
0.0
 10
356.3649658380556
 20
-18.03465898888888
 30
0.0
  0
SPLINE
  5
123
330
455
100
AcDbEntity
  8
0
 62
    18
420
        0
100
AcDbSpline
210
0.0
220
0.0
230
1.0
 70
     8
 71
     3
 72
     8
 73
     4
 74
     0
 42
0.000000001
 43
0.001
 40
0.0
 40
0.0
 40
0.0
 40
0.0
 40
1.0
 40
1.0
 40
1.0
 40
1.0
 10
356.3649658380556
 20
-18.03465898888888
 30
0.0
 10
351.011104096389
 20
-17.63647341944444
 30
0.0
 10
349.2552077408334
 20
-17.69282614166666
 30
0.0
 10
348.3523125297223
 20
-18.29181211666666
 30
0.0
  0
SPLINE
  5
124
330
455
100
AcDbEntity
  8
0
 62
    18
420
        0
100
AcDbSpline
210
0.0
220
0.0
230
1.0
 70
     8
 71
     3
 72
     8
 73
     4
 74
     0
 42
0.000000001
 43
0.001
 40
0.0
 40
0.0
 40
0.0
 40
0.0
 40
1.0
 40
1.0
 40
1.0
 40
1.0
 10
348.3523125297223
 20
-18.29181211666666
 30
0.0
 10
346.6105879630557
 20
-19.44726023333333
 30
0.0
 10
347.7493673297223
 20
-20.57428998333333
 30
0.0
 10
354.0953421352779
 20
-23.97565584166666
 30
0.0
  0
SPLINE
  5
125
330
455
100
AcDbEntity
  8
0
 62
    18
420
        0
100
AcDbSpline
210
0.0
220
0.0
230
1.0
 70
     8
 71
     3
 72
     8
 73
     4
 74
     0
 42
0.000000001
 43
0.001
 40
0.0
 40
0.0
 40
0.0
 40
0.0
 40
1.0
 40
1.0
 40
1.0
 40
1.0
 10
354.0953421352779
 20
-23.97565584166666
 30
0.0
 10
368.1174781047223
 20
-31.49131616944444
 30
0.0
 10
381.9879115158335
 20
-40.84930058611111
 30
0.0
 10
389.8566801741667
 20
-48.10278246666665
 30
0.0
  0
ELLIPSE
  5
243
330
455
100
AcDbEntity
  8
0
 62
    18
420
        0
100
AcDbEllipse
 10
297.2710687446911
 20
-116.5501039097432
 30
0.0
 11
123.1213764728448
 21
0.0
 31
0.0
210
0.0
220
0.0
230
1.0
 40
0.8433734939759034
 41
0.5908860882152723
 42
0.7197258252697484
  0
LINE
  5
127
330
455
100
AcDbEntity
  8
0
 62
    18
420
        0
100
AcDbLine
 10
399.5168917825001
 20
-58.70264308611111
 30
0.0
 11
409.9564639380557
 21
-74.22992943333334
 31
0.0
  0
LINE
  5
128
330
455
100
AcDbEntity
  8
0
 62
    18
420
        0
100
AcDbLine
 10
409.9564639380557
 20
-74.22992943333334
 30
0.0
 11
417.6722416936112
 21
-86.48703915833332
 31
0.0
  0
SPLINE
  5
129
330
455
100
AcDbEntity
  8
0
 62
    18
420
        0
100
AcDbSpline
210
0.0
220
0.0
230
1.0
 70
     8
 71
     3
 72
     8
 73
     4
 74
     0
 42
0.000000001
 43
0.001
 40
0.0
 40
0.0
 40
0.0
 40
0.0
 40
1.0
 40
1.0
 40
1.0
 40
1.0
 10
417.6722416936112
 20
-86.48703915833332
 30
0.0
 10
418.2408700825002
 20
-87.11961204722222
 30
0.0
 10
419.5648489630557
 20
-87.62921154166665
 30
0.0
 10
420.2481692880557
 20
-87.47850875555555
 30
0.0
  0
ELLIPSE
  5
244
330
455
100
AcDbEntity
  8
0
 62
    18
420
        0
100
AcDbEllipse
 10
419.2056381625143
 20
-85.83492793873158
 30
0.0
 11
2.210149279601552
 21
0.0
 31
0.0
210
0.0
220
0.0
230
1.0
 40
0.8433734939759078
 41
5.203608634516158
 42
5.943346982044567
  0
LINE
  5
12B
330
455
100
AcDbEntity
  8
0
 62
    18
420
        0
100
AcDbLine
 10
421.2893858436112
 20
-86.45625753333333
 30
0.0
 11
421.2893858436112
 21
-86.45625753333333
 31
0.0
  0
SPLINE
  5
12C
330
455
100
AcDbEntity
  8
0
 62
    18
420
        0
100
AcDbSpline
210
0.0
220
0.0
230
1.0
 70
     8
 71
     3
 72
     8
 73
     4
 74
     0
 42
0.000000001
 43
0.001
 40
0.0
 40
0.0
 40
0.0
 40
0.0
 40
1.0
 40
1.0
 40
1.0
 40
1.0
 10
191.9487024408333
 20
-52.35776365555554
 30
0.0
 10
192.8171344380555
 20
-51.54844521944443
 30
0.0
 10
192.3606505769444
 20
-50.10594147222221
 30
0.0
 10
190.0322900797222
 20
-46.30208333333333
 30
0.0
  0
ELLIPSE
  5
245
330
455
100
AcDbEntity
  8
0
 62
    18
420
        0
100
AcDbEllipse
 10
116.487328295297
 20
-77.559016938807
 30
0.0
 11
-82.35555768908182
 21
1.008564701159292E-14
 31
0.0
210
0.0
220
0.0
230
1.0
 40
0.8433734939759034
 41
3.60838235504757
 42
4.013668178136104
  0
ELLIPSE
  5
246
330
455
100
AcDbEntity
  8
0
 62
    18
420
        0
100
AcDbEllipse
 10
130.0179088002131
 20
-62.44835795979352
 30
0.0
 11
-59.94511119441115
 21
7.341158854876779E-15
 31
0.0
210
0.0
220
0.0
230
1.0
 40
0.8433734939759037
 41
3.994233180051176
 42
4.262500140035327
  0
SPLINE
  5
12F
330
455
100
AcDbEntity
  8
0
 62
    18
420
        0
100
AcDbSpline
210
0.0
220
0.0
230
1.0
 70
     8
 71
     3
 72
     8
 73
     4
 74
     0
 42
0.000000001
 43
0.001
 40
0.0
 40
0.0
 40
0.0
 40
0.0
 40
1.0
 40
1.0
 40
1.0
 40
1.0
 10
156.0859658380555
 20
-16.922803975
 30
0.0
 10
145.7504567769444
 20
-12.55292200555555
 30
0.0
 10
127.2074908713889
 20
-9.530139266666666
 30
0.0
 10
115.7137015936111
 20
-10.34151721944444
 30
0.0
  0
SPLINE
  5
130
330
455
100
AcDbEntity
  8
0
 62
    18
420
        0
100
AcDbSpline
210
0.0
220
0.0
230
1.0
 70
     8
 71
     3
 72
     8
 73
     4
 74
     0
 42
0.000000001
 43
0.001
 40
0.0
 40
0.0
 40
0.0
 40
0.0
 40
1.0
 40
1.0
 40
1.0
 40
1.0
 10
115.7137015936111
 20
-10.34151721944444
 30
0.0
 10
111.0139674630555
 20
-10.67328461111111
 30
0.0
 10
110.2618963936111
 20
-10.91268984166667
 30
0.0
 10
110.2618963936111
 20
-12.076953875
 30
0.0
  0
SPLINE
  5
131
330
455
100
AcDbEntity
  8
0
 62
    18
420
        0
100
AcDbSpline
210
0.0
220
0.0
230
1.0
 70
     8
 71
     3
 72
     8
 73
     4
 74
     0
 42
0.000000001
 43
0.001
 40
0.0
 40
0.0
 40
0.0
 40
0.0
 40
1.0
 40
1.0
 40
1.0
 40
1.0
 10
110.2618963936111
 20
-12.076953875
 30
0.0
 10
110.2618963936111
 20
-13.26962886666666
 30
0.0
 10
110.9417323325
 20
-13.60501399444444
 30
0.0
 10
117.0031001380556
 20
-15.40262879166667
 30
0.0
  0
SPLINE
  5
132
330
455
100
AcDbEntity
  8
0
 62
    18
420
        0
100
AcDbSpline
210
0.0
220
0.0
230
1.0
 70
     8
 71
     3
 72
     8
 73
     4
 74
     0
 42
0.000000001
 43
0.001
 40
0.0
 40
0.0
 40
0.0
 40
0.0
 40
1.0
 40
1.0
 40
1.0
 40
1.0
 10
117.0031001380556
 20
-15.40262879166667
 30
0.0
 10
127.7562670436111
 20
-18.59168416388889
 30
0.0
 10
134.0266687352778
 20
-20.89178398611111
 30
0.0
 10
141.2992852825
 20
-24.31492540555556
 30
0.0
  0
SPLINE
  5
133
330
455
100
AcDbEntity
  8
0
 62
    18
420
        0
100
AcDbSpline
210
0.0
220
0.0
230
1.0
 70
     8
 71
     3
 72
     8
 73
     4
 74
     0
 42
0.000000001
 43
0.001
 40
0.0
 40
0.0
 40
0.0
 40
0.0
 40
1.0
 40
1.0
 40
1.0
 40
1.0
 10
141.2992852825
 20
-24.31492540555556
 30
0.0
 10
152.8371125158334
 20
-29.74565601388889
 30
0.0
 10
154.2952549019445
 20
-30.50347418611112
 30
0.0
 10
163.8453130602778
 20
-36.03262203333333
 30
0.0
  0
SPLINE
  5
134
330
455
100
AcDbEntity
  8
0
 62
    18
420
        0
100
AcDbSpline
210
0.0
220
0.0
230
1.0
 70
     8
 71
     3
 72
     8
 73
     4
 74
     0
 42
0.000000001
 43
0.001
 40
0.0
 40
0.0
 40
0.0
 40
0.0
 40
1.0
 40
1.0
 40
1.0
 40
1.0
 10
163.8453130602778
 20
-36.03262203333333
 30
0.0
 10
169.7301191158334
 20
-39.43970959444443
 30
0.0
 10
169.9252154575
 20
-39.56540184722221
 30
0.0
 10
180.4467146075
 20
-46.72774147222221
 30
0.0
  0
ELLIPSE
  5
247
330
455
100
AcDbEntity
  8
0
 62
    18
420
        0
100
AcDbEllipse
 10
330.9341233917764
 20
107.6451014237099
 30
0.0
 11
-236.9617377087404
 21
2.901944336054036E-14
 31
0.0
210
0.0
220
0.0
230
1.0
 40
0.8433734939759036
 41
0.8826965451650999
 42
0.9282496454152724
  0
SPLINE
  5
136
330
455
100
AcDbEntity
  8
0
 62
    18
420
        0
100
AcDbSpline
210
0.0
220
0.0
230
1.0
 70
     8
 71
     3
 72
     8
 73
     4
 74
     0
 42
0.000000001
 43
0.001
 40
0.0
 40
0.0
 40
0.0
 40
0.0
 40
1.0
 40
1.0
 40
1.0
 40
1.0
 10
188.9380757186111
 20
-52.34706849166665
 30
0.0
 10
190.1651945213889
 20
-52.97805352777777
 30
0.0
 10
191.2788511713889
 20
-52.98200957777777
 30
0.0
 10
191.9487024408334
 20
-52.3577611861111
 30
0.0
  0
LINE
  5
137
330
455
100
AcDbEntity
  8
0
 62
    18
420
        0
100
AcDbLine
 10
191.9487024408334
 20
-52.3577611861111
 30
0.0
 11
191.9487024408333
 21
-52.35776365555554
 31
0.0
  0
LINE
  5
290
330
455
100
AcDbEntity
  8
0
100
AcDbLine
 10
850.4179062272917
 20
-52.0
 30
0.0
 11
850.4179062272917
 21
0.0
 31
0.0
  0
ENDBLK
  5
457
330
455
100
AcDbEntity
  8
0
100
AcDbBlockEnd
  0
ENDSEC
  0
SECTION
  2
ENTITIES
  0
INSERT
  5
36E
330
399
100
AcDbEntity
  8
0
100
AcDbBlockReference
  2
demi sapin
 10
-0.0000000000000005
 20
5.0
 30
0.0
 42
-1.0
  0
INSERT
  5
293
330
399
100
AcDbEntity
  8
0
100
AcDbBlockReference
  2
demi sapin
 10
0.0
 20
0.0
 30
0.0
  0
LINE
  5
378
330
399
100
AcDbEntity
  8
0
100
AcDbLine
 10
500.0000000000001
 20
5.0
 30
0.0
 11
-0.0000000000000005
 21
5.0
 31
0.0
  0
LINE
  5
379
330
399
100
AcDbEntity
  8
0
100
AcDbLine
 10
0.0
 20
0.0
 30
0.0
 11
500.0000000000001
 21
0.0
 31
0.0
  0
LINE
  5
376
330
399
100
AcDbEntity
  8
0
100
AcDbLine
 10
500.0
 20
5.0
 30
0.0
 11
500.0
 21
5.0
 31
0.0
  0
LINE
  5
375
330
399
100
AcDbEntity
  8
0
100
AcDbLine
 10
500.0
 20
0.0
 30
0.0
 11
500.0
 21
5.0
 31
0.0
  0
LINE
  5
374
330
399
100
AcDbEntity
  8
0
100
AcDbLine
 10
850.4179062272917
 20
0.0
 30
0.0
 11
850.4179062272917
 21
5.0
 31
0.0
  0
ENDSEC
  0
SECTION
  2
OBJECTS
  0
DICTIONARY
  5
387
330
0
100
AcDbDictionary
281
     1
  3
ACAD_DETAILVIEWSTYLE
350
45F
  3
ACAD_GROUP
350
388
  3
ACAD_LAYOUT
350
394
  3
ACAD_MATERIAL
350
3BD
  3
ACAD_MLEADERSTYLE
350
3E5
  3
ACAD_MLINESTYLE
350
391
  3
ACAD_PLOTSETTINGS
350
393
  3
ACAD_PLOTSTYLENAME
350
389
  3
ACAD_SCALELIST
350
3C1
  3
ACAD_SECTIONVIEWSTYLE
350
460
  3
ACAD_TABLESTYLE
350
3E3
  3
ACAD_VISUALSTYLE
350
3A4
  3
ACDB_RECOMPOSE_DATA
350
45C
  3
AcDbVariableDictionary
350
458
  3
QCAD_OBJECTS
350
3E9
  0
SUN
  5
3E7
330
3A3
100
AcDbSun
 90
        1
290
     0
 63
     7
421
 16777215
 40
1.0
291
     1
 91
  2455826
 92
 54000000
292
     0
 70
     2
 71
   256
280
     1
  0
DICTIONARY
  5
45F
102
{ACAD_REACTORS
330
387
102
}
330
387
100
AcDbDictionary
281
     1
  0
DICTIONARY
  5
388
102
{ACAD_REACTORS
330
387
102
}
330
387
100
AcDbDictionary
281
     1
  0
DICTIONARY
  5
394
102
{ACAD_REACTORS
330
387
102
}
330
387
100
AcDbDictionary
281
     1
  3
Layout1
350
398
  3
Layout2
350
3A0
  3
Model
350
39C
  0
DICTIONARY
  5
3BD
102
{ACAD_REACTORS
330
387
102
}
330
387
100
AcDbDictionary
281
     1
  3
ByBlock
350
3BF
  3
ByLayer
350
3BE
  3
Global
350
3C0
  0
DICTIONARY
  5
3E5
102
{ACAD_REACTORS
330
387
102
}
330
387
100
AcDbDictionary
281
     1
  3
Standard
350
3E6
  0
DICTIONARY
  5
391
102
{ACAD_REACTORS
330
387
102
}
330
387
100
AcDbDictionary
281
     1
  3
Standard
350
392
  0
DICTIONARY
  5
393
102
{ACAD_REACTORS
330
387
102
}
330
387
100
AcDbDictionary
281
     1
  0
ACDBDICTIONARYWDFLT
  5
389
102
{ACAD_REACTORS
330
387
102
}
330
387
100
AcDbDictionary
281
     1
  3
Normal
350
38A
100
AcDbDictionaryWithDefault
340
38A
  0
DICTIONARY
  5
3C1
102
{ACAD_REACTORS
330
387
102
}
330
387
100
AcDbDictionary
281
     1
  3
A0
350
3C2
  3
A1
350
3C3
  3
A2
350
3C4
  3
A3
350
3C5
  3
A4
350
3C6
  3
A5
350
3C7
  3
A6
350
3C8
  3
A7
350
3C9
  3
A8
350
3CA
  3
A9
350
3CB
  3
B0
350
3CC
  3
B1
350
3CD
  3
B2
350
3CE
  3
B3
350
3CF
  3
B4
350
3D0
  3
B5
350
3D1
  3
B6
350
3D2
  3
B7
350
3D3
  3
B8
350
3D4
  3
B9
350
3D5
  3
C0
350
3D6
  3
C1
350
3D7
  3
C2
350
3D8
  3
C3
350
3D9
  3
C4
350
3DA
  3
C5
350
3DB
  3
C6
350
3DC
  3
C7
350
3DD
  3
C8
350
3DE
  3
C9
350
3DF
  3
D0
350
3E0
  3
D1
350
3E1
  3
D2
350
3E2
  0
DICTIONARY
  5
460
102
{ACAD_REACTORS
330
387
102
}
330
387
100
AcDbDictionary
281
     1
  0
DICTIONARY
  5
3E3
102
{ACAD_REACTORS
330
387
102
}
330
387
100
AcDbDictionary
281
     1
  3
Standard
350
3E4
  0
DICTIONARY
  5
3A4
102
{ACAD_REACTORS
330
387
102
}
330
387
100
AcDbDictionary
281
     1
  3
2dWireframe
350
3A9
  3
Basic
350
3AC
  3
Brighten
350
3B0
  3
ColorChange
350
3B4
  3
Conceptual
350
3AE
  3
Dim
350
3AF
  3
EdgeColorOff
350
3B7
  3
Facepattern
350
3B3
  3
Flat
350
3A5
  3
FlatWithEdges
350
3A6
  3
Gouraud
350
3A7
  3
GouraudWithEdges
350
3A8
  3
Hidden
350
3AB
  3
JitterOff
350
3B5
  3
Linepattern
350
3B2
  3
OverhangOff
350
3B6
  3
Realistic
350
3AD
  3
Shaded
350
3BC
  3
Shaded with edges
350
3BB
  3
Shades of Gray
350
3B8
  3
Sketchy
350
3B9
  3
Thicken
350
3B1
  3
Wireframe
350
3AA
  3
X-Ray
350
3BA
  0
XRECORD
  5
45C
102
{ACAD_REACTORS
330
387
102
}
330
387
100
AcDbXrecord
280
     1
 90
        1
330
3E4
  0
DICTIONARY
  5
458
102
{ACAD_REACTORS
330
387
102
}
330
387
100
AcDbDictionary
281
     1
  3
CANNOSCALE
350
459
  3
CMLEADERSTYLE
350
45E
  3
CTABLESTYLE
350
45D
  0
DICTIONARY
  5
3E9
102
{ACAD_REACTORS
330
387
102
}
330
387
100
AcDbDictionary
281
     1
  3
ColorSettings/BackgroundColor
350
3EB
  3
ColorSettings/ColorMode
350
3EC
  3
Grid/DisplayGrid00
350
3ED
  3
Grid/DisplayGrid01
350
3EE
  3
Grid/DisplayGrid02
350
3EF
  3
Grid/DisplayGrid03
350
3F0
  3
Grid/GridSpacingX00
350
3F1
  3
Grid/GridSpacingX01
350
3F2
  3
Grid/GridSpacingX02
350
3F3
  3
Grid/GridSpacingX03
350
3F4
  3
Grid/GridSpacingY00
350
3F5
  3
Grid/GridSpacingY01
350
3F6
  3
Grid/GridSpacingY02
350
3F7
  3
Grid/GridSpacingY03
350
3F8
  3
Grid/IsometricGrid00
350
3F9
  3
Grid/IsometricGrid01
350
3FA
  3
Grid/IsometricGrid02
350
3FB
  3
Grid/IsometricGrid03
350
3FC
  3
Grid/IsometricProjection00
350
3FD
  3
Grid/IsometricProjection01
350
3FE
  3
Grid/IsometricProjection02
350
3FF
  3
Grid/IsometricProjection03
350
400
  3
Grid/MetaGridSpacingX00
350
401
  3
Grid/MetaGridSpacingX01
350
402
  3
Grid/MetaGridSpacingX02
350
403
  3
Grid/MetaGridSpacingX03
350
404
  3
Grid/MetaGridSpacingY00
350
405
  3
Grid/MetaGridSpacingY01
350
406
  3
Grid/MetaGridSpacingY02
350
407
  3
Grid/MetaGridSpacingY03
350
408
  3
MultiPageSettings/Columns
350
409
  3
MultiPageSettings/GlueMarginsBottom
350
40A
  3
MultiPageSettings/GlueMarginsLeft
350
40B
  3
MultiPageSettings/GlueMarginsRight
350
40C
  3
MultiPageSettings/GlueMarginsTop
350
40D
  3
MultiPageSettings/PrintCropMarks
350
40E
  3
MultiPageSettings/Rows
350
40F
  3
PageSettings/OffsetX
350
410
  3
PageSettings/OffsetY
350
411
  3
PageSettings/PageOrientation
350
412
  3
PageSettings/PaperHeight
350
413
  3
PageSettings/PaperWidth
350
414
  3
PageSettings/Scale
350
415
  3
PageSettings/ShowPaperBorders
350
416
  3
QCADVersion
350
417
  3
UnitSettings/PaperUnit
350
418
  0
LAYOUT
  5
398
102
{ACAD_REACTORS
330
394
102
}
330
394
100
AcDbPlotSettings
  1

  2
none_device
  4

  6

 40
0.0
 41
0.0
 42
0.0
 43
0.0
 44
0.0
 45
0.0
 46
0.0
 47
0.0
 48
0.0
 49
0.0
140
0.0
141
0.0
142
1.0
143
1.0
 70
   688
 72
     0
 73
     0
 74
     5
  7

 75
    16
 76
     0
 77
     2
 78
   300
147
1.0
148
0.0
149
0.0
100
AcDbLayout
  1
Layout1
 70
     1
 71
     1
 10
0.0
 20
0.0
 11
12.0
 21
9.0
 12
0.0
 22
0.0
 32
0.0
 14
1.000000000000000E+20
 24
1.000000000000000E+20
 34
1.000000000000000E+20
 15
-1.000000000000000E+20
 25
-1.000000000000000E+20
 35
-1.000000000000000E+20
146
0.0
 13
0.0
 23
0.0
 33
0.0
 16
1.0
 26
0.0
 36
0.0
 17
0.0
 27
1.0
 37
0.0
 76
     0
330
395
  0
LAYOUT
  5
3A0
102
{ACAD_REACTORS
330
394
102
}
330
394
100
AcDbPlotSettings
  1

  2
none_device
  4

  6

 40
0.0
 41
0.0
 42
0.0
 43
0.0
 44
0.0
 45
0.0
 46
0.0
 47
0.0
 48
0.0
 49
0.0
140
0.0
141
0.0
142
1.0
143
1.0
 70
   688
 72
     0
 73
     0
 74
     5
  7

 75
    16
 76
     0
 77
     2
 78
   300
147
1.0
148
0.0
149
0.0
100
AcDbLayout
  1
Layout2
 70
     1
 71
     2
 10
0.0
 20
0.0
 11
0.0
 21
0.0
 12
0.0
 22
0.0
 32
0.0
 14
0.0
 24
0.0
 34
0.0
 15
0.0
 25
0.0
 35
0.0
146
0.0
 13
0.0
 23
0.0
 33
0.0
 16
1.0
 26
0.0
 36
0.0
 17
0.0
 27
1.0
 37
0.0
 76
     0
330
39D
  0
LAYOUT
  5
39C
102
{ACAD_REACTORS
330
394
102
}
330
394
100
AcDbPlotSettings
  1

  2
none_device
  4
Letter_(8.50_x_11.00_Inches)
  6

 40
6.35
 41
6.35
 42
6.35000508
 43
6.35000508
 44
215.9
 45
279.4
 46
0.0
 47
0.0
 48
0.0
 49
0.0
140
0.0
141
0.0
142
1.0
143
1.0
 70
  1712
 72
     0
 73
     0
 74
     0
  7

 75
     0
 76
     0
 77
     2
 78
   300
147
1.0
148
0.0
149
0.0
100
AcDbLayout
  1
Model
 70
     1
 71
     0
 10
0.0
 20
0.0
 11
12.0
 21
9.0
 12
0.0
 22
0.0
 32
0.0
 14
1.000000000000000E+20
 24
1.000000000000000E+20
 34
1.000000000000000E+20
 15
-1.000000000000000E+20
 25
-1.000000000000000E+20
 35
-1.000000000000000E+20
146
0.0
 13
0.0
 23
0.0
 33
0.0
 16
1.0
 26
0.0
 36
0.0
 17
0.0
 27
1.0
 37
0.0
 76
     0
330
399
331
3A3
  0
MATERIAL
  5
3BF
102
{ACAD_REACTORS
330
3BD
102
}
330
3BD
100
AcDbMaterial
  1
ByBlock
 72
     1
 94
      127
  0
MATERIAL
  5
3BE
102
{ACAD_REACTORS
330
3BD
102
}
330
3BD
100
AcDbMaterial
  1
ByLayer
 72
     1
 94
      127
  0
MATERIAL
  5
3C0
102
{ACAD_REACTORS
330
3BD
102
}
330
3BD
100
AcDbMaterial
  1
Global
 72
     1
 94
      127
  0
MLEADERSTYLE
  5
3E6
102
{ACAD_REACTORS
330
3E5
102
}
330
3E5
100
AcDbMLeaderStyle
179
     2
170
     2
171
     1
172
     0
 90
        2
 40
0.0
 41
0.0
173
     1
 91
-1056964608
340
38E
 92
       -2
290
     1
 42
0.09
291
     1
 43
0.36
  3
Standard
341
0
 44
0.18
300

342
38C
174
     1
178
     6
175
     1
176
     0
 93
-1056964608
 45
0.18
292
     0
297
     0
 46
0.18
343
0
 94
-1056964608
 47
1.0
 49
1.0
140
1.0
293
     1
141
0.0
294
     1
177
     0
142
1.0
295
     0
296
     0
143
0.125
271
     0
272
     9
273
     9
298
     0
  0
MLINESTYLE
  5
392
102
{ACAD_REACTORS
330
391
102
}
330
391
100
AcDbMlineStyle
  2
Standard
 70
     0
  3

 62
   256
 51
90.0
 52
90.0
 71
     2
 49
0.5
 62
   256
  6
BYLAYER
 49
-0.5
 62
   256
  6
BYLAYER
  0
ACDBPLACEHOLDER
  5
38A
102
{ACAD_REACTORS
330
389
102
}
330
389
  0
SCALE
  5
3C2
102
{ACAD_REACTORS
330
3C1
102
}
330
3C1
100
AcDbScale
 70
     0
300
1:1
140
1.0
141
1.0
290
     1
  0
SCALE
  5
3C3
102
{ACAD_REACTORS
330
3C1
102
}
330
3C1
100
AcDbScale
 70
     0
300
1:2
140
1.0
141
2.0
290
     0
  0
SCALE
  5
3C4
102
{ACAD_REACTORS
330
3C1
102
}
330
3C1
100
AcDbScale
 70
     0
300
1:4
140
1.0
141
4.0
290
     0
  0
SCALE
  5
3C5
102
{ACAD_REACTORS
330
3C1
102
}
330
3C1
100
AcDbScale
 70
     0
300
1:5
140
1.0
141
5.0
290
     0
  0
SCALE
  5
3C6
102
{ACAD_REACTORS
330
3C1
102
}
330
3C1
100
AcDbScale
 70
     0
300
1:8
140
1.0
141
8.0
290
     0
  0
SCALE
  5
3C7
102
{ACAD_REACTORS
330
3C1
102
}
330
3C1
100
AcDbScale
 70
     0
300
1:10
140
1.0
141
10.0
290
     0
  0
SCALE
  5
3C8
102
{ACAD_REACTORS
330
3C1
102
}
330
3C1
100
AcDbScale
 70
     0
300
1:16
140
1.0
141
16.0
290
     0
  0
SCALE
  5
3C9
102
{ACAD_REACTORS
330
3C1
102
}
330
3C1
100
AcDbScale
 70
     0
300
1:20
140
1.0
141
20.0
290
     0
  0
SCALE
  5
3CA
102
{ACAD_REACTORS
330
3C1
102
}
330
3C1
100
AcDbScale
 70
     0
300
1:30
140
1.0
141
30.0
290
     0
  0
SCALE
  5
3CB
102
{ACAD_REACTORS
330
3C1
102
}
330
3C1
100
AcDbScale
 70
     0
300
1:40
140
1.0
141
40.0
290
     0
  0
SCALE
  5
3CC
102
{ACAD_REACTORS
330
3C1
102
}
330
3C1
100
AcDbScale
 70
     0
300
1:50
140
1.0
141
50.0
290
     0
  0
SCALE
  5
3CD
102
{ACAD_REACTORS
330
3C1
102
}
330
3C1
100
AcDbScale
 70
     0
300
1:100
140
1.0
141
100.0
290
     0
  0
SCALE
  5
3CE
102
{ACAD_REACTORS
330
3C1
102
}
330
3C1
100
AcDbScale
 70
     0
300
2:1
140
2.0
141
1.0
290
     0
  0
SCALE
  5
3CF
102
{ACAD_REACTORS
330
3C1
102
}
330
3C1
100
AcDbScale
 70
     0
300
4:1
140
4.0
141
1.0
290
     0
  0
SCALE
  5
3D0
102
{ACAD_REACTORS
330
3C1
102
}
330
3C1
100
AcDbScale
 70
     0
300
8:1
140
8.0
141
1.0
290
     0
  0
SCALE
  5
3D1
102
{ACAD_REACTORS
330
3C1
102
}
330
3C1
100
AcDbScale
 70
     0
300
10:1
140
10.0
141
1.0
290
     0
  0
SCALE
  5
3D2
102
{ACAD_REACTORS
330
3C1
102
}
330
3C1
100
AcDbScale
 70
     0
300
100:1
140
100.0
141
1.0
290
     0
  0
SCALE
  5
3D3
102
{ACAD_REACTORS
330
3C1
102
}
330
3C1
100
AcDbScale
 70
     0
300
1/128" = 1'-0"
140
0.0078125
141
12.0
290
     0
  0
SCALE
  5
3D4
102
{ACAD_REACTORS
330
3C1
102
}
330
3C1
100
AcDbScale
 70
     0
300
1/64" = 1'-0"
140
0.015625
141
12.0
290
     0
  0
SCALE
  5
3D5
102
{ACAD_REACTORS
330
3C1
102
}
330
3C1
100
AcDbScale
 70
     0
300
1/32" = 1'-0"
140
0.03125
141
12.0
290
     0
  0
SCALE
  5
3D6
102
{ACAD_REACTORS
330
3C1
102
}
330
3C1
100
AcDbScale
 70
     0
300
1/16" = 1'-0"
140
0.0625
141
12.0
290
     0
  0
SCALE
  5
3D7
102
{ACAD_REACTORS
330
3C1
102
}
330
3C1
100
AcDbScale
 70
     0
300
3/32" = 1'-0"
140
0.09375
141
12.0
290
     0
  0
SCALE
  5
3D8
102
{ACAD_REACTORS
330
3C1
102
}
330
3C1
100
AcDbScale
 70
     0
300
1/8" = 1'-0"
140
0.125
141
12.0
290
     0
  0
SCALE
  5
3D9
102
{ACAD_REACTORS
330
3C1
102
}
330
3C1
100
AcDbScale
 70
     0
300
3/16" = 1'-0"
140
0.1875
141
12.0
290
     0
  0
SCALE
  5
3DA
102
{ACAD_REACTORS
330
3C1
102
}
330
3C1
100
AcDbScale
 70
     0
300
1/4" = 1'-0"
140
0.25
141
12.0
290
     0
  0
SCALE
  5
3DB
102
{ACAD_REACTORS
330
3C1
102
}
330
3C1
100
AcDbScale
 70
     0
300
3/8" = 1'-0"
140
0.375
141
12.0
290
     0
  0
SCALE
  5
3DC
102
{ACAD_REACTORS
330
3C1
102
}
330
3C1
100
AcDbScale
 70
     0
300
1/2" = 1'-0"
140
0.5
141
12.0
290
     0
  0
SCALE
  5
3DD
102
{ACAD_REACTORS
330
3C1
102
}
330
3C1
100
AcDbScale
 70
     0
300
3/4" = 1'-0"
140
0.75
141
12.0
290
     0
  0
SCALE
  5
3DE
102
{ACAD_REACTORS
330
3C1
102
}
330
3C1
100
AcDbScale
 70
     0
300
1" = 1'-0"
140
1.0
141
12.0
290
     0
  0
SCALE
  5
3DF
102
{ACAD_REACTORS
330
3C1
102
}
330
3C1
100
AcDbScale
 70
     0
300
1-1/2" = 1'-0"
140
1.5
141
12.0
290
     0
  0
SCALE
  5
3E0
102
{ACAD_REACTORS
330
3C1
102
}
330
3C1
100
AcDbScale
 70
     0
300
3" = 1'-0"
140
3.0
141
12.0
290
     0
  0
SCALE
  5
3E1
102
{ACAD_REACTORS
330
3C1
102
}
330
3C1
100
AcDbScale
 70
     0
300
6" = 1'-0"
140
6.0
141
12.0
290
     0
  0
SCALE
  5
3E2
102
{ACAD_REACTORS
330
3C1
102
}
330
3C1
100
AcDbScale
 70
     0
300
1'-0" = 1'-0"
140
12.0
141
12.0
290
     0
  0
TABLESTYLE
  5
3E4
102
{ACAD_REACTORS
330
3E3
102
}
102
{ACAD_XDICTIONARY
360
45A
102
}
330
3E3
100
AcDbTableStyle
  3
Standard
 70
     0
 71
     0
 40
0.06
 41
0.06
280
     0
281
     0
  7
Standard
140
0.18
170
     2
 62
     0
 63
   257
283
     0
 90
        4
 91
        0
  1

274
    -2
284
     1
 64
     0
275
    -2
285
     1
 65
     0
276
    -2
286
     1
 66
     0
277
    -2
287
     1
 67
     0
278
    -2
288
     1
 68
     0
279
    -2
289
     1
 69
     0
  7
Standard
140
0.25
170
     5
 62
     0
 63
   257
283
     0
 90
        4
 91
        0
  1

274
    -2
284
     1
 64
     0
275
    -2
285
     1
 65
     0
276
    -2
286
     1
 66
     0
277
    -2
287
     1
 67
     0
278
    -2
288
     1
 68
     0
279
    -2
289
     1
 69
     0
  7
Standard
140
0.18
170
     5
 62
     0
 63
   257
283
     0
 90
        4
 91
        0
  1

274
    -2
284
     1
 64
     0
275
    -2
285
     1
 65
     0
276
    -2
286
     1
 66
     0
277
    -2
287
     1
 67
     0
278
    -2
288
     1
 68
     0
279
    -2
289
     1
 69
     0
  0
VISUALSTYLE
  5
3A9
102
{ACAD_REACTORS
330
3A4
102
}
330
3A4
100
AcDbVisualStyle
  2
2dWireframe
 70
     4
177
     3
291
     0
 70
    58
 90
        0
176
     1
 90
        2
176
     1
 90
        0
176
     1
 90
        0
176
     1
 40
0.6
176
     1
 40
30.0
176
     1
 62
     7
420
 16777215
176
     1
 90
        1
176
     1
 90
        4
176
     1
 62
     7
176
     1
 62
   257
176
     1
 90
        1
176
     1
 90
        1
176
     1
 40
1.0
176
     1
 90
        0
176
     1
 62
   257
176
     1
 40
1.0
176
     1
 90
        1
176
     1
 90
        6
176
     1
 90
        2
176
     1
 62
     7
176
     1
 90
        5
176
     1
 90
        0
176
     1
 90
        0
176
     1
290
     0
176
     1
 90
        1
176
     1
 40
0.0
176
     1
 90
        0
176
     1
290
     1
176
     1
290
     1
176
     1
290
     0
176
     1
290
     0
176
     1
290
     0
176
     1
290
     0
176
     1
290
     0
176
     1
290
     0
176
     1
290
     0
176
     1
 90
       50
176
     1
 40
0.0
176
     1
 40
1.0
176
     1
 90
        0
176
     1
 62
    18
420
        0
176
     1
 90
       50
176
     1
 90
        3
176
     1
 62
     5
420
      255
176
     1
290
     0
176
     1
 90
       50
176
     1
 90
       50
176
     1
 90
       50
176
     1
290
     0
176
     1
 90
       50
176
     1
 62
   256
176
     0
 40
1.0
176
     0
 90
        2
176
     1
  1
strokes_ogs.tif
176
     1
290
     0
176
     1
 40
1.0
176
     1
 40
1.0
176
     1
  0
VISUALSTYLE
  5
3AC
102
{ACAD_REACTORS
330
3A4
102
}
330
3A4
100
AcDbVisualStyle
  2
Basic
 70
     7
177
     3
291
     1
 70
    58
 90
        1
176
     1
 90
        0
176
     1
 90
        1
176
     1
 90
        0
176
     1
 40
0.6
176
     1
 40
30.0
176
     1
 62
     7
420
 16777215
176
     1
 90
        0
176
     1
 90
        4
176
     1
 62
     7
176
     1
 62
   257
176
     1
 90
        1
176
     1
 90
        1
176
     1
 40
1.0
176
     1
 90
        8
176
     1
 62
     7
176
     1
 40
1.0
176
     1
 90
        1
176
     1
 90
        6
176
     1
 90
        2
176
     1
 62
     7
176
     1
 90
        5
176
     1
 90
        0
176
     1
 90
        0
176
     1
290
     0
176
     1
 90
        1
176
     1
 40
0.0
176
     1
 90
        0
176
     1
290
     0
176
     1
290
     1
176
     1
290
     1
176
     1
290
     0
176
     1
290
     0
176
     1
290
     0
176
     1
290
     0
176
     1
290
     0
176
     1
290
     0
176
     1
 90
       50
176
     1
 40
0.0
176
     1
 40
1.0
176
     1
 90
        0
176
     1
 62
    18
420
        0
176
     1
 90
       50
176
     1
 90
        3
176
     1
 62
     5
420
      255
176
     1
290
     0
176
     1
 90
       50
176
     1
 90
       50
176
     1
 90
       50
176
     1
290
     0
176
     1
 90
       50
176
     1
 62
   256
176
     0
 40
1.0
176
     0
 90
        2
176
     1
  1
strokes_ogs.tif
176
     1
290
     0
176
     1
 40
1.0
176
     1
 40
1.0
176
     1
  0
VISUALSTYLE
  5
3B0
102
{ACAD_REACTORS
330
3A4
102
}
330
3A4
100
AcDbVisualStyle
  2
Brighten
 70
    12
177
     3
291
     1
 70
    58
 90
        2
176
     1
 90
        2
176
     1
 90
        0
176
     1
 90
        0
176
     1
 40
0.6
176
     1
 40
30.0
176
     1
 62
     7
420
 16777215
176
     1
 90
        1
176
     1
 90
        4
176
     1
 62
     7
176
     1
 62
   257
176
     1
 90
        1
176
     1
 90
        1
176
     1
 40
1.0
176
     1
 90
        8
176
     1
 62
     7
176
     1
 40
1.0
176
     1
 90
        1
176
     1
 90
        6
176
     1
 90
        2
176
     1
 62
     7
176
     1
 90
        5
176
     1
 90
        0
176
     1
 90
        0
176
     1
290
     0
176
     1
 90
        1
176
     1
 40
50.0
176
     1
 90
        0
176
     1
290
     0
176
     1
290
     1
176
     1
290
     1
176
     1
290
     0
176
     1
290
     0
176
     1
290
     0
176
     1
290
     0
176
     1
290
     0
176
     1
290
     0
176
     1
 90
       50
176
     1
 40
0.0
176
     1
 40
1.0
176
     1
 90
        0
176
     1
 62
    18
420
        0
176
     1
 90
       50
176
     1
 90
        3
176
     1
 62
     5
420
      255
176
     1
290
     0
176
     1
 90
       50
176
     1
 90
       50
176
     1
 90
       50
176
     1
290
     0
176
     1
 90
       50
176
     1
 62
   256
176
     0
 40
1.0
176
     0
 90
        2
176
     1
  1
strokes_ogs.tif
176
     1
290
     0
176
     1
 40
1.0
176
     1
 40
1.0
176
     1
  0
VISUALSTYLE
  5
3B4
102
{ACAD_REACTORS
330
3A4
102
}
330
3A4
100
AcDbVisualStyle
  2
ColorChange
 70
    16
177
     3
291
     1
 70
    58
 90
        2
176
     1
 90
        2
176
     1
 90
        3
176
     1
 90
        0
176
     1
 40
0.6
176
     1
 40
30.0
176
     1
 62
     8
420
  8421504
176
     1
 90
        1
176
     1
 90
        4
176
     1
 62
     7
176
     1
 62
   257
176
     1
 90
        1
176
     1
 90
        1
176
     1
 40
1.0
176
     1
 90
        8
176
     1
 62
     8
420
  8421504
176
     1
 40
1.0
176
     1
 90
        1
176
     1
 90
        6
176
     1
 90
        2
176
     1
 62
     7
176
     1
 90
        5
176
     1
 90
        0
176
     1
 90
        0
176
     1
290
     0
176
     1
 90
        1
176
     1
 40
0.0
176
     1
 90
        0
176
     1
290
     0
176
     1
290
     1
176
     1
290
     1
176
     1
290
     0
176
     1
290
     0
176
     1
290
     0
176
     1
290
     0
176
     1
290
     0
176
     1
290
     0
176
     1
 90
       50
176
     1
 40
0.0
176
     1
 40
1.0
176
     1
 90
        0
176
     1
 62
    18
420
        0
176
     1
 90
       50
176
     1
 90
        3
176
     1
 62
     5
420
      255
176
     1
290
     0
176
     1
 90
       50
176
     1
 90
       50
176
     1
 90
       50
176
     1
290
     0
176
     1
 90
       50
176
     1
 62
   256
176
     0
 40
1.0
176
     0
 90
        2
176
     1
  1
strokes_ogs.tif
176
     1
290
     0
176
     1
 40
1.0
176
     1
 40
1.0
176
     1
  0
VISUALSTYLE
  5
3AE
102
{ACAD_REACTORS
330
3A4
102
}
330
3A4
100
AcDbVisualStyle
  2
Conceptual
 70
     9
177
     3
291
     0
 70
    58
 90
        3
176
     1
 90
        2
176
     1
 90
        0
176
     1
 90
        0
176
     1
 40
0.6
176
     1
 40
30.0
176
     1
 62
     7
420
 16777215
176
     1
 90
        2
176
     1
 90
        2
176
     1
 62
     7
176
     1
 62
   257
176
     1
 90
        1
176
     1
 90
        1
176
     1
 40
179.0
176
     1
 90
        8
176
     1
 62
     7
176
     1
 40
1.0
176
     1
 90
        1
176
     1
 90
        6
176
     1
 90
        2
176
     1
 62
     7
176
     1
 90
        3
176
     1
 90
        0
176
     1
 90
        0
176
     1
290
     0
176
     1
 90
        1
176
     1
 40
0.0
176
     1
 90
        0
176
     1
290
     0
176
     1
290
     1
176
     1
290
     1
176
     1
290
     0
176
     1
290
     0
176
     1
290
     0
176
     1
290
     0
176
     1
290
     0
176
     1
290
     0
176
     1
 90
       50
176
     1
 40
0.0
176
     1
 40
1.0
176
     1
 90
        0
176
     1
 62
    18
420
        0
176
     1
 90
       50
176
     1
 90
        3
176
     1
 62
     5
420
      255
176
     1
290
     0
176
     1
 90
       50
176
     1
 90
       50
176
     1
 90
       50
176
     1
290
     0
176
     1
 90
       50
176
     1
 62
   256
176
     0
 40
1.0
176
     0
 90
        2
176
     1
  1
strokes_ogs.tif
176
     1
290
     0
176
     1
 40
1.0
176
     1
 40
1.0
176
     1
  0
VISUALSTYLE
  5
3AF
102
{ACAD_REACTORS
330
3A4
102
}
330
3A4
100
AcDbVisualStyle
  2
Dim
 70
    11
177
     3
291
     1
 70
    58
 90
        2
176
     1
 90
        2
176
     1
 90
        0
176
     1
 90
        0
176
     1
 40
0.6
176
     1
 40
30.0
176
     1
 62
     7
420
 16777215
176
     1
 90
        1
176
     1
 90
        4
176
     1
 62
     7
176
     1
 62
   257
176
     1
 90
        1
176
     1
 90
        1
176
     1
 40
1.0
176
     1
 90
        8
176
     1
 62
     7
176
     1
 40
1.0
176
     1
 90
        1
176
     1
 90
        6
176
     1
 90
        2
176
     1
 62
     7
176
     1
 90
        5
176
     1
 90
        0
176
     1
 90
        0
176
     1
290
     0
176
     1
 90
        1
176
     1
 40
-50.0
176
     1
 90
        0
176
     1
290
     0
176
     1
290
     1
176
     1
290
     1
176
     1
290
     0
176
     1
290
     0
176
     1
290
     0
176
     1
290
     0
176
     1
290
     0
176
     1
290
     0
176
     1
 90
       50
176
     1
 40
0.0
176
     1
 40
1.0
176
     1
 90
        0
176
     1
 62
    18
420
        0
176
     1
 90
       50
176
     1
 90
        3
176
     1
 62
     5
420
      255
176
     1
290
     0
176
     1
 90
       50
176
     1
 90
       50
176
     1
 90
       50
176
     1
290
     0
176
     1
 90
       50
176
     1
 62
   256
176
     0
 40
1.0
176
     0
 90
        2
176
     1
  1
strokes_ogs.tif
176
     1
290
     0
176
     1
 40
1.0
176
     1
 40
1.0
176
     1
  0
VISUALSTYLE
  5
3B7
102
{ACAD_REACTORS
330
3A4
102
}
330
3A4
100
AcDbVisualStyle
  2
EdgeColorOff
 70
    22
177
     3
291
     1
 70
    58
 90
        2
176
     0
 90
        2
176
     0
 90
        0
176
     0
 90
        0
176
     0
 40
0.6
176
     0
 40
30.0
176
     0
 62
     7
420
 16777215
176
     0
 90
        1
176
     0
 90
        4
176
     0
 62
     7
176
     0
 62
   257
176
     0
 90
        1
176
     0
 90
        1
176
     0
 40
1.0
176
     0
 90
        8
176
     2
 62
     7
176
     0
 40
1.0
176
     0
 90
        1
176
     0
 90
        6
176
     0
 90
        2
176
     0
 62
     7
176
     0
 90
        5
176
     0
 90
        0
176
     0
 90
        0
176
     0
290
     0
176
     0
 90
        1
176
     0
 40
0.0
176
     0
 90
        0
176
     0
290
     0
176
     0
290
     1
176
     0
290
     1
176
     0
290
     0
176
     0
290
     0
176
     0
290
     0
176
     0
290
     0
176
     0
290
     0
176
     0
290
     0
176
     0
 90
       50
176
     0
 40
0.0
176
     0
 40
1.0
176
     0
 90
        0
176
     0
 62
    18
420
        0
176
     0
 90
       50
176
     0
 90
        3
176
     0
 62
     5
420
      255
176
     0
290
     0
176
     0
 90
       50
176
     0
 90
       50
176
     0
 90
       50
176
     0
290
     0
176
     0
 90
       50
176
     0
 62
   256
176
     0
 40
1.0
176
     0
 90
        2
176
     0
  1
strokes_ogs.tif
176
     0
290
     0
176
     0
 40
1.0
176
     0
 40
1.0
176
     0
  0
VISUALSTYLE
  5
3B3
102
{ACAD_REACTORS
330
3A4
102
}
330
3A4
100
AcDbVisualStyle
  2
Facepattern
 70
    15
177
     3
291
     1
 70
    58
 90
        2
176
     1
 90
        2
176
     1
 90
        0
176
     1
 90
        0
176
     1
 40
0.6
176
     1
 40
30.0
176
     1
 62
     7
420
 16777215
176
     1
 90
        1
176
     1
 90
        4
176
     1
 62
     7
176
     1
 62
   257
176
     1
 90
        1
176
     1
 90
        1
176
     1
 40
1.0
176
     1
 90
        8
176
     1
 62
     7
176
     1
 40
1.0
176
     1
 90
        1
176
     1
 90
        6
176
     1
 90
        2
176
     1
 62
     7
176
     1
 90
        5
176
     1
 90
        0
176
     1
 90
        0
176
     1
290
     0
176
     1
 90
        1
176
     1
 40
0.0
176
     1
 90
        0
176
     1
290
     0
176
     1
290
     1
176
     1
290
     1
176
     1
290
     0
176
     1
290
     0
176
     1
290
     0
176
     1
290
     0
176
     1
290
     0
176
     1
290
     0
176
     1
 90
       50
176
     1
 40
0.0
176
     1
 40
1.0
176
     1
 90
        0
176
     1
 62
    18
420
        0
176
     1
 90
       50
176
     1
 90
        3
176
     1
 62
     5
420
      255
176
     1
290
     0
176
     1
 90
       50
176
     1
 90
       50
176
     1
 90
       50
176
     1
290
     0
176
     1
 90
       50
176
     1
 62
   256
176
     0
 40
1.0
176
     0
 90
        2
176
     1
  1
strokes_ogs.tif
176
     1
290
     0
176
     1
 40
1.0
176
     1
 40
1.0
176
     1
  0
VISUALSTYLE
  5
3A5
102
{ACAD_REACTORS
330
3A4
102
}
330
3A4
100
AcDbVisualStyle
  2
Flat
 70
     0
177
     3
291
     1
 70
    58
 90
        2
176
     1
 90
        1
176
     1
 90
        1
176
     1
 90
        2
176
     1
 40
0.6
176
     1
 40
30.0
176
     1
 62
     7
420
 16777215
176
     1
 90
        0
176
     1
 90
        0
176
     1
 62
     7
176
     1
 62
   257
176
     1
 90
        1
176
     1
 90
        1
176
     1
 40
1.0
176
     1
 90
        8
176
     1
 62
     7
176
     1
 40
1.0
176
     1
 90
        1
176
     1
 90
        6
176
     1
 90
        2
176
     1
 62
     7
176
     1
 90
        5
176
     1
 90
        0
176
     1
 90
        0
176
     1
290
     0
176
     1
 90
       13
176
     1
 40
0.0
176
     1
 90
        0
176
     1
290
     0
176
     1
290
     1
176
     1
290
     1
176
     1
290
     0
176
     1
290
     0
176
     1
290
     0
176
     1
290
     0
176
     1
290
     0
176
     1
290
     0
176
     1
 90
       50
176
     1
 40
0.0
176
     1
 40
1.0
176
     1
 90
        0
176
     1
 62
    18
420
        0
176
     1
 90
       50
176
     1
 90
        3
176
     1
 62
     5
420
      255
176
     1
290
     0
176
     1
 90
       50
176
     1
 90
       50
176
     1
 90
       50
176
     1
290
     0
176
     1
 90
       50
176
     1
 62
   256
176
     0
 40
1.0
176
     0
 90
        2
176
     1
  1
strokes_ogs.tif
176
     1
290
     0
176
     1
 40
1.0
176
     1
 40
1.0
176
     1
  0
VISUALSTYLE
  5
3A6
102
{ACAD_REACTORS
330
3A4
102
}
330
3A4
100
AcDbVisualStyle
  2
FlatWithEdges
 70
     1
177
     3
291
     1
 70
    58
 90
        2
176
     1
 90
        1
176
     1
 90
        1
176
     1
 90
        2
176
     1
 40
0.6
176
     1
 40
30.0
176
     1
 62
     7
420
 16777215
176
     1
 90
        1
176
     1
 90
        0
176
     1
 62
     7
176
     1
 62
   257
176
     1
 90
        1
176
     1
 90
        1
176
     1
 40
1.0
176
     1
 90
        0
176
     1
 62
   257
176
     1
 40
1.0
176
     1
 90
        1
176
     1
 90
        6
176
     1
 90
        2
176
     1
 62
     7
176
     1
 90
        5
176
     1
 90
        0
176
     1
 90
        0
176
     1
290
     0
176
     1
 90
       13
176
     1
 40
0.0
176
     1
 90
        0
176
     1
290
     0
176
     1
290
     1
176
     1
290
     1
176
     1
290
     0
176
     1
290
     0
176
     1
290
     0
176
     1
290
     0
176
     1
290
     0
176
     1
290
     0
176
     1
 90
       50
176
     1
 40
0.0
176
     1
 40
1.0
176
     1
 90
        0
176
     1
 62
    18
420
        0
176
     1
 90
       50
176
     1
 90
        3
176
     1
 62
     5
420
      255
176
     1
290
     0
176
     1
 90
       50
176
     1
 90
       50
176
     1
 90
       50
176
     1
290
     0
176
     1
 90
       50
176
     1
 62
   256
176
     0
 40
1.0
176
     0
 90
        2
176
     1
  1
strokes_ogs.tif
176
     1
290
     0
176
     1
 40
1.0
176
     1
 40
1.0
176
     1
  0
VISUALSTYLE
  5
3A7
102
{ACAD_REACTORS
330
3A4
102
}
330
3A4
100
AcDbVisualStyle
  2
Gouraud
 70
     2
177
     3
291
     1
 70
    58
 90
        2
176
     1
 90
        2
176
     1
 90
        1
176
     1
 90
        2
176
     1
 40
0.6
176
     1
 40
30.0
176
     1
 62
     7
420
 16777215
176
     1
 90
        0
176
     1
 90
        0
176
     1
 62
     7
176
     1
 62
   257
176
     1
 90
        1
176
     1
 90
        1
176
     1
 40
1.0
176
     1
 90
        0
176
     1
 62
     7
176
     1
 40
1.0
176
     1
 90
        1
176
     1
 90
        6
176
     1
 90
        2
176
     1
 62
     7
176
     1
 90
        5
176
     1
 90
        0
176
     1
 90
        0
176
     1
290
     0
176
     1
 90
       13
176
     1
 40
0.0
176
     1
 90
        0
176
     1
290
     0
176
     1
290
     1
176
     1
290
     1
176
     1
290
     0
176
     1
290
     0
176
     1
290
     0
176
     1
290
     0
176
     1
290
     0
176
     1
290
     0
176
     1
 90
       50
176
     1
 40
0.0
176
     1
 40
1.0
176
     1
 90
        0
176
     1
 62
    18
420
        0
176
     1
 90
       50
176
     1
 90
        3
176
     1
 62
     5
420
      255
176
     1
290
     0
176
     1
 90
       50
176
     1
 90
       50
176
     1
 90
       50
176
     1
290
     0
176
     1
 90
       50
176
     1
 62
   256
176
     0
 40
1.0
176
     0
 90
        2
176
     1
  1
strokes_ogs.tif
176
     1
290
     0
176
     1
 40
1.0
176
     1
 40
1.0
176
     1
  0
VISUALSTYLE
  5
3A8
102
{ACAD_REACTORS
330
3A4
102
}
330
3A4
100
AcDbVisualStyle
  2
GouraudWithEdges
 70
     3
177
     3
291
     1
 70
    58
 90
        2
176
     1
 90
        2
176
     1
 90
        1
176
     1
 90
        2
176
     1
 40
0.6
176
     1
 40
30.0
176
     1
 62
     7
420
 16777215
176
     1
 90
        1
176
     1
 90
        0
176
     1
 62
     7
176
     1
 62
   257
176
     1
 90
        1
176
     1
 90
        1
176
     1
 40
1.0
176
     1
 90
        0
176
     1
 62
   257
176
     1
 40
1.0
176
     1
 90
        1
176
     1
 90
        6
176
     1
 90
        2
176
     1
 62
     7
176
     1
 90
        5
176
     1
 90
        0
176
     1
 90
        0
176
     1
290
     0
176
     1
 90
       13
176
     1
 40
0.0
176
     1
 90
        0
176
     1
290
     0
176
     1
290
     1
176
     1
290
     1
176
     1
290
     0
176
     1
290
     0
176
     1
290
     0
176
     1
290
     0
176
     1
290
     0
176
     1
290
     0
176
     1
 90
       50
176
     1
 40
0.0
176
     1
 40
1.0
176
     1
 90
        0
176
     1
 62
    18
420
        0
176
     1
 90
       50
176
     1
 90
        3
176
     1
 62
     5
420
      255
176
     1
290
     0
176
     1
 90
       50
176
     1
 90
       50
176
     1
 90
       50
176
     1
290
     0
176
     1
 90
       50
176
     1
 62
   256
176
     0
 40
1.0
176
     0
 90
        2
176
     1
  1
strokes_ogs.tif
176
     1
290
     0
176
     1
 40
1.0
176
     1
 40
1.0
176
     1
  0
VISUALSTYLE
  5
3AB
102
{ACAD_REACTORS
330
3A4
102
}
330
3A4
100
AcDbVisualStyle
  2
Hidden
 70
     6
177
     3
291
     0
 70
    58
 90
        1
176
     1
 90
        2
176
     1
 90
        2
176
     1
 90
        0
176
     1
 40
0.6
176
     1
 40
30.0
176
     1
 62
     7
420
 16777215
176
     1
 90
        2
176
     1
 90
        2
176
     1
 62
     7
176
     1
 62
   257
176
     1
 90
        2
176
     1
 90
        1
176
     1
 40
40.0
176
     1
 90
        0
176
     1
 62
   257
176
     1
 40
1.0
176
     1
 90
        1
176
     1
 90
        6
176
     1
 90
        2
176
     1
 62
     7
176
     1
 90
        3
176
     1
 90
        0
176
     1
 90
        0
176
     1
290
     0
176
     1
 90
        1
176
     1
 40
0.0
176
     1
 90
        0
176
     1
290
     0
176
     1
290
     1
176
     1
290
     1
176
     1
290
     0
176
     1
290
     0
176
     1
290
     0
176
     1
290
     0
176
     1
290
     0
176
     1
290
     0
176
     1
 90
       50
176
     1
 40
0.0
176
     1
 40
1.0
176
     1
 90
        0
176
     1
 62
    18
420
        0
176
     1
 90
       50
176
     1
 90
        3
176
     1
 62
     5
420
      255
176
     1
290
     0
176
     1
 90
       50
176
     1
 90
       50
176
     1
 90
       50
176
     1
290
     0
176
     1
 90
       50
176
     1
 62
   256
176
     0
 40
1.0
176
     0
 90
        2
176
     1
  1
strokes_ogs.tif
176
     1
290
     0
176
     1
 40
1.0
176
     1
 40
1.0
176
     1
  0
VISUALSTYLE
  5
3B5
102
{ACAD_REACTORS
330
3A4
102
}
330
3A4
100
AcDbVisualStyle
  2
JitterOff
 70
    20
177
     3
291
     1
 70
    58
 90
        2
176
     0
 90
        2
176
     0
 90
        0
176
     0
 90
        0
176
     0
 40
0.6
176
     0
 40
30.0
176
     0
 62
     7
420
 16777215
176
     0
 90
        1
176
     0
 90
        4
176
     0
 62
     7
176
     0
 62
   257
176
     0
 90
        1
176
     0
 90
        1
176
     0
 40
1.0
176
     0
 90
       10
176
     2
 62
     7
176
     0
 40
1.0
176
     0
 90
        1
176
     0
 90
        6
176
     0
 90
        2
176
     0
 62
     7
176
     0
 90
        5
176
     0
 90
        0
176
     0
 90
        0
176
     0
290
     0
176
     0
 90
        1
176
     0
 40
0.0
176
     0
 90
        0
176
     0
290
     0
176
     0
290
     1
176
     0
290
     1
176
     0
290
     0
176
     0
290
     0
176
     0
290
     0
176
     0
290
     0
176
     0
290
     0
176
     0
290
     0
176
     0
 90
       50
176
     0
 40
0.0
176
     0
 40
1.0
176
     0
 90
        0
176
     0
 62
    18
420
        0
176
     0
 90
       50
176
     0
 90
        3
176
     0
 62
     5
420
      255
176
     0
290
     0
176
     0
 90
       50
176
     0
 90
       50
176
     0
 90
       50
176
     0
290
     0
176
     0
 90
       50
176
     0
 62
   256
176
     0
 40
1.0
176
     0
 90
        2
176
     0
  1
strokes_ogs.tif
176
     0
290
     0
176
     0
 40
1.0
176
     0
 40
1.0
176
     0
  0
VISUALSTYLE
  5
3B2
102
{ACAD_REACTORS
330
3A4
102
}
330
3A4
100
AcDbVisualStyle
  2
Linepattern
 70
    14
177
     3
291
     1
 70
    58
 90
        2
176
     1
 90
        2
176
     1
 90
        0
176
     1
 90
        0
176
     1
 40
0.6
176
     1
 40
30.0
176
     1
 62
     7
420
 16777215
176
     1
 90
        1
176
     1
 90
        4
176
     1
 62
     7
176
     1
 62
   257
176
     1
 90
        7
176
     1
 90
        7
176
     1
 40
1.0
176
     1
 90
        8
176
     1
 62
     7
176
     1
 40
1.0
176
     1
 90
        1
176
     1
 90
        6
176
     1
 90
        2
176
     1
 62
     7
176
     1
 90
        5
176
     1
 90
        0
176
     1
 90
        0
176
     1
290
     0
176
     1
 90
        1
176
     1
 40
0.0
176
     1
 90
        0
176
     1
290
     0
176
     1
290
     1
176
     1
290
     1
176
     1
290
     0
176
     1
290
     0
176
     1
290
     0
176
     1
290
     0
176
     1
290
     0
176
     1
290
     0
176
     1
 90
       50
176
     1
 40
0.0
176
     1
 40
1.0
176
     1
 90
        0
176
     1
 62
    18
420
        0
176
     1
 90
       50
176
     1
 90
        3
176
     1
 62
     5
420
      255
176
     1
290
     0
176
     1
 90
       50
176
     1
 90
       50
176
     1
 90
       50
176
     1
290
     0
176
     1
 90
       50
176
     1
 62
   256
176
     0
 40
1.0
176
     0
 90
        2
176
     1
  1
strokes_ogs.tif
176
     1
290
     0
176
     1
 40
1.0
176
     1
 40
1.0
176
     1
  0
VISUALSTYLE
  5
3B6
102
{ACAD_REACTORS
330
3A4
102
}
330
3A4
100
AcDbVisualStyle
  2
OverhangOff
 70
    21
177
     3
291
     1
 70
    58
 90
        2
176
     0
 90
        2
176
     0
 90
        0
176
     0
 90
        0
176
     0
 40
0.6
176
     0
 40
30.0
176
     0
 62
     7
420
 16777215
176
     0
 90
        1
176
     0
 90
        4
176
     0
 62
     7
176
     0
 62
   257
176
     0
 90
        1
176
     0
 90
        1
176
     0
 40
1.0
176
     0
 90
        9
176
     2
 62
     7
176
     0
 40
1.0
176
     0
 90
        1
176
     0
 90
        6
176
     0
 90
        2
176
     0
 62
     7
176
     0
 90
        5
176
     0
 90
        0
176
     0
 90
        0
176
     0
290
     0
176
     0
 90
        1
176
     0
 40
0.0
176
     0
 90
        0
176
     0
290
     0
176
     0
290
     1
176
     0
290
     1
176
     0
290
     0
176
     0
290
     0
176
     0
290
     0
176
     0
290
     0
176
     0
290
     0
176
     0
290
     0
176
     0
 90
       50
176
     0
 40
0.0
176
     0
 40
1.0
176
     0
 90
        0
176
     0
 62
    18
420
        0
176
     0
 90
       50
176
     0
 90
        3
176
     0
 62
     5
420
      255
176
     0
290
     0
176
     0
 90
       50
176
     0
 90
       50
176
     0
 90
       50
176
     0
290
     0
176
     0
 90
       50
176
     0
 62
   256
176
     0
 40
1.0
176
     0
 90
        2
176
     0
  1
strokes_ogs.tif
176
     0
290
     0
176
     0
 40
1.0
176
     0
 40
1.0
176
     0
  0
VISUALSTYLE
  5
3AD
102
{ACAD_REACTORS
330
3A4
102
}
330
3A4
100
AcDbVisualStyle
  2
Realistic
 70
     8
177
     3
291
     0
 70
    58
 90
        2
176
     1
 90
        3
176
     1
 90
        0
176
     1
 90
        2
176
     1
 40
0.6
176
     1
 40
30.0
176
     1
 62
     7
420
 16777215
176
     1
 90
        0
176
     1
 90
        0
176
     1
 62
     7
176
     1
 62
   257
176
     1
 90
        1
176
     1
 90
        1
176
     1
 40
1.0
176
     1
 90
        8
176
     1
 62
   257
176
     1
 40
1.0
176
     1
 90
        1
176
     1
 90
        6
176
     1
 90
        2
176
     1
 62
     7
176
     1
 90
        3
176
     1
 90
        0
176
     1
 90
        0
176
     1
290
     0
176
     1
 90
       13
176
     1
 40
0.0
176
     1
 90
        0
176
     1
290
     0
176
     1
290
     1
176
     1
290
     1
176
     1
290
     0
176
     1
290
     0
176
     1
290
     0
176
     1
290
     0
176
     1
290
     0
176
     1
290
     0
176
     1
 90
       50
176
     1
 40
0.0
176
     1
 40
1.0
176
     1
 90
        0
176
     1
 62
    18
420
        0
176
     1
 90
       50
176
     1
 90
        3
176
     1
 62
     5
420
      255
176
     1
290
     0
176
     1
 90
       50
176
     1
 90
       50
176
     1
 90
       50
176
     1
290
     0
176
     1
 90
       50
176
     1
 62
   256
176
     0
 40
1.0
176
     0
 90
        2
176
     1
  1
strokes_ogs.tif
176
     1
290
     0
176
     1
 40
1.0
176
     1
 40
1.0
176
     1
  0
VISUALSTYLE
  5
3BC
102
{ACAD_REACTORS
330
3A4
102
}
330
3A4
100
AcDbVisualStyle
  2
Shaded
 70
    27
177
     3
291
     0
 70
    58
 90
        2
176
     1
 90
        2
176
     1
 90
        1
176
     1
 90
        2
176
     1
 40
0.6
176
     1
 40
30.0
176
     1
 62
     7
420
 16777215
176
     1
 90
        0
176
     1
 90
        4
176
     1
 62
     7
176
     1
 62
   257
176
     1
 90
        1
176
     1
 90
        1
176
     1
 40
1.0
176
     1
 90
        8
176
     1
 62
   257
176
     1
 40
1.0
176
     1
 90
        1
176
     1
 90
        6
176
     1
 90
        2
176
     1
 62
     8
420
  7895160
176
     1
 90
        3
176
     1
 90
        0
176
     1
 90
        0
176
     1
290
     0
176
     1
 90
        5
176
     1
 40
0.0
176
     1
 90
        0
176
     1
290
     0
176
     1
290
     1
176
     1
290
     1
176
     1
290
     0
176
     1
290
     0
176
     1
290
     0
176
     1
290
     0
176
     1
290
     0
176
     1
290
     0
176
     1
 90
       50
176
     1
 40
0.0
176
     1
 40
1.0
176
     1
 90
        0
176
     1
 62
    18
420
        0
176
     1
 90
       50
176
     1
 90
        3
176
     1
 62
     5
420
      255
176
     1
290
     0
176
     1
 90
       50
176
     1
 90
       50
176
     1
 90
       50
176
     1
290
     0
176
     1
 90
       50
176
     1
 62
   256
176
     0
 40
1.0
176
     0
 90
        2
176
     1
  1
strokes_ogs.tif
176
     1
290
     0
176
     1
 40
1.0
176
     1
 40
1.0
176
     1
  0
VISUALSTYLE
  5
3BB
102
{ACAD_REACTORS
330
3A4
102
}
330
3A4
100
AcDbVisualStyle
  2
Shaded with edges
 70
    26
177
     3
291
     0
 70
    58
 90
        2
176
     1
 90
        2
176
     1
 90
        1
176
     1
 90
        2
176
     1
 40
0.6
176
     1
 40
30.0
176
     1
 62
     7
420
 16777215
176
     1
 90
        1
176
     1
 90
       10
176
     1
 62
     7
176
     1
 62
   257
176
     1
 90
        2
176
     1
 90
        1
176
     1
 40
1.0
176
     1
 90
        8
176
     1
 62
   257
176
     1
 40
1.0
176
     1
 90
        1
176
     1
 90
        6
176
     1
 90
        2
176
     1
 62
     7
176
     1
 90
        3
176
     1
 90
        0
176
     1
 90
        0
176
     1
290
     0
176
     1
 90
        5
176
     1
 40
0.0
176
     1
 90
        0
176
     1
290
     0
176
     1
290
     1
176
     1
290
     1
176
     1
290
     0
176
     1
290
     0
176
     1
290
     0
176
     1
290
     0
176
     1
290
     0
176
     1
290
     0
176
     1
 90
       50
176
     1
 40
0.0
176
     1
 40
1.0
176
     1
 90
        0
176
     1
 62
    18
420
        0
176
     1
 90
       50
176
     1
 90
        3
176
     1
 62
     5
420
      255
176
     1
290
     0
176
     1
 90
       50
176
     1
 90
       50
176
     1
 90
       50
176
     1
290
     0
176
     1
 90
       50
176
     1
 62
   256
176
     0
 40
1.0
176
     0
 90
        2
176
     1
  1
strokes_ogs.tif
176
     1
290
     0
176
     1
 40
1.0
176
     1
 40
1.0
176
     1
  0
VISUALSTYLE
  5
3B8
102
{ACAD_REACTORS
330
3A4
102
}
330
3A4
100
AcDbVisualStyle
  2
Shades of Gray
 70
    23
177
     3
291
     0
 70
    58
 90
        2
176
     1
 90
        2
176
     1
 90
        3
176
     1
 90
        0
176
     1
 40
0.6
176
     1
 40
30.0
176
     1
 62
     7
420
 16777215
176
     1
 90
        2
176
     1
 90
        2
176
     1
 62
     7
176
     1
 62
     7
176
     1
 90
        1
176
     1
 90
        1
176
     1
 40
40.0
176
     1
 90
        8
176
     1
 62
     7
176
     1
 40
1.0
176
     1
 90
        1
176
     1
 90
        6
176
     1
 90
        2
176
     1
 62
     7
176
     1
 90
        3
176
     1
 90
        0
176
     1
 90
        0
176
     1
290
     0
176
     1
 90
        1
176
     1
 40
0.0
176
     1
 90
        0
176
     1
290
     0
176
     1
290
     1
176
     1
290
     1
176
     1
290
     0
176
     1
290
     0
176
     1
290
     0
176
     1
290
     0
176
     1
290
     0
176
     1
290
     0
176
     1
 90
       50
176
     1
 40
0.0
176
     1
 40
1.0
176
     1
 90
        0
176
     1
 62
    18
420
        0
176
     1
 90
       50
176
     1
 90
        3
176
     1
 62
     5
420
      255
176
     1
290
     0
176
     1
 90
       50
176
     1
 90
       50
176
     1
 90
       50
176
     1
290
     0
176
     1
 90
       50
176
     1
 62
   256
176
     0
 40
1.0
176
     0
 90
        2
176
     1
  1
strokes_ogs.tif
176
     1
290
     0
176
     1
 40
1.0
176
     1
 40
1.0
176
     1
  0
VISUALSTYLE
  5
3B9
102
{ACAD_REACTORS
330
3A4
102
}
330
3A4
100
AcDbVisualStyle
  2
Sketchy
 70
    24
177
     3
291
     0
 70
    58
 90
        1
176
     1
 90
        2
176
     1
 90
        2
176
     1
 90
        0
176
     1
 40
0.6
176
     1
 40
30.0
176
     1
 62
     7
420
 16777215
176
     1
 90
        2
176
     1
 90
        2
176
     1
 62
     7
176
     1
 62
     7
176
     1
 90
        1
176
     1
 90
        1
176
     1
 40
40.0
176
     1
 90
       11
176
     1
 62
     7
176
     1
 40
1.0
176
     1
 90
        1
176
     1
 90
        6
176
     1
 90
        2
176
     1
 62
     7
176
     1
 90
        6
176
     1
 90
        0
176
     1
 90
        0
176
     1
290
     0
176
     1
 90
        1
176
     1
 40
0.0
176
     1
 90
        0
176
     1
290
     0
176
     1
290
     1
176
     1
290
     1
176
     1
290
     0
176
     1
290
     0
176
     1
290
     0
176
     1
290
     0
176
     1
290
     0
176
     1
290
     0
176
     1
 90
       50
176
     1
 40
0.0
176
     1
 40
1.0
176
     1
 90
        0
176
     1
 62
    18
420
        0
176
     1
 90
       50
176
     1
 90
        3
176
     1
 62
     5
420
      255
176
     1
290
     0
176
     1
 90
       50
176
     1
 90
       50
176
     1
 90
       50
176
     1
290
     0
176
     1
 90
       50
176
     1
 62
   256
176
     0
 40
1.0
176
     0
 90
        2
176
     1
  1
strokes_ogs.tif
176
     1
290
     0
176
     1
 40
1.0
176
     1
 40
1.0
176
     1
  0
VISUALSTYLE
  5
3B1
102
{ACAD_REACTORS
330
3A4
102
}
330
3A4
100
AcDbVisualStyle
  2
Thicken
 70
    13
177
     3
291
     1
 70
    58
 90
        2
176
     1
 90
        2
176
     1
 90
        0
176
     1
 90
        0
176
     1
 40
0.6
176
     1
 40
30.0
176
     1
 62
     7
420
 16777215
176
     1
 90
        1
176
     1
 90
        4
176
     1
 62
     7
176
     1
 62
   257
176
     1
 90
        1
176
     1
 90
        1
176
     1
 40
1.0
176
     1
 90
       12
176
     1
 62
     7
176
     1
 40
1.0
176
     1
 90
        1
176
     1
 90
        6
176
     1
 90
        2
176
     1
 62
     7
176
     1
 90
        5
176
     1
 90
        0
176
     1
 90
        0
176
     1
290
     0
176
     1
 90
        1
176
     1
 40
0.0
176
     1
 90
        0
176
     1
290
     0
176
     1
290
     1
176
     1
290
     1
176
     1
290
     0
176
     1
290
     0
176
     1
290
     0
176
     1
290
     0
176
     1
290
     0
176
     1
290
     0
176
     1
 90
       50
176
     1
 40
0.0
176
     1
 40
1.0
176
     1
 90
        0
176
     1
 62
    18
420
        0
176
     1
 90
       50
176
     1
 90
        3
176
     1
 62
     5
420
      255
176
     1
290
     0
176
     1
 90
       50
176
     1
 90
       50
176
     1
 90
       50
176
     1
290
     0
176
     1
 90
       50
176
     1
 62
   256
176
     0
 40
1.0
176
     0
 90
        2
176
     1
  1
strokes_ogs.tif
176
     1
290
     0
176
     1
 40
1.0
176
     1
 40
1.0
176
     1
  0
VISUALSTYLE
  5
3AA
102
{ACAD_REACTORS
330
3A4
102
}
330
3A4
100
AcDbVisualStyle
  2
Wireframe
 70
     5
177
     3
291
     0
 70
    58
 90
        0
176
     1
 90
        2
176
     1
 90
        0
176
     1
 90
        0
176
     1
 40
0.6
176
     1
 40
30.0
176
     1
 62
     7
420
 16777215
176
     1
 90
        1
176
     1
 90
        4
176
     1
 62
     7
176
     1
 62
   257
176
     1
 90
        1
176
     1
 90
        1
176
     1
 40
1.0
176
     1
 90
        0
176
     1
 62
   257
176
     1
 40
1.0
176
     1
 90
        1
176
     1
 90
        6
176
     1
 90
        2
176
     1
 62
     7
176
     1
 90
        3
176
     1
 90
        0
176
     1
 90
        0
176
     1
290
     0
176
     1
 90
        1
176
     1
 40
0.0
176
     1
 90
        0
176
     1
290
     0
176
     1
290
     1
176
     1
290
     1
176
     1
290
     0
176
     1
290
     0
176
     1
290
     0
176
     1
290
     0
176
     1
290
     0
176
     1
290
     0
176
     1
 90
       50
176
     1
 40
0.0
176
     1
 40
1.0
176
     1
 90
        0
176
     1
 62
    18
420
        0
176
     1
 90
       50
176
     1
 90
        3
176
     1
 62
     5
420
      255
176
     1
290
     0
176
     1
 90
       50
176
     1
 90
       50
176
     1
 90
       50
176
     1
290
     0
176
     1
 90
       50
176
     1
 62
   256
176
     0
 40
1.0
176
     0
 90
        2
176
     1
  1
strokes_ogs.tif
176
     1
290
     0
176
     1
 40
1.0
176
     1
 40
1.0
176
     1
  0
VISUALSTYLE
  5
3BA
102
{ACAD_REACTORS
330
3A4
102
}
330
3A4
100
AcDbVisualStyle
  2
X-Ray
 70
    25
177
     3
291
     0
 70
    58
 90
        2
176
     1
 90
        2
176
     1
 90
        1
176
     1
 90
        1
176
     1
 40
0.5
176
     1
 40
30.0
176
     1
 62
     7
420
 16777215
176
     1
 90
        1
176
     1
 90
        0
176
     1
 62
     7
176
     1
 62
   257
176
     1
 90
        1
176
     1
 90
        1
176
     1
 40
1.0
176
     1
 90
        8
176
     1
 62
     7
176
     1
 40
1.0
176
     1
 90
        1
176
     1
 90
        6
176
     1
 90
        2
176
     1
 62
     7
176
     1
 90
        3
176
     1
 90
        0
176
     1
 90
        0
176
     1
290
     0
176
     1
 90
       13
176
     1
 40
0.0
176
     1
 90
        0
176
     1
290
     0
176
     1
290
     1
176
     1
290
     1
176
     1
290
     0
176
     1
290
     0
176
     1
290
     0
176
     1
290
     0
176
     1
290
     0
176
     1
290
     0
176
     1
 90
       50
176
     1
 40
0.0
176
     1
 40
1.0
176
     1
 90
        0
176
     1
 62
    18
420
        0
176
     1
 90
       50
176
     1
 90
        3
176
     1
 62
     5
420
      255
176
     1
290
     0
176
     1
 90
       50
176
     1
 90
       50
176
     1
 90
       50
176
     1
290
     0
176
     1
 90
       50
176
     1
 62
   256
176
     0
 40
1.0
176
     0
 90
        2
176
     1
  1
strokes_ogs.tif
176
     1
290
     0
176
     1
 40
1.0
176
     1
 40
1.0
176
     1
  0
DICTIONARYVAR
  5
459
102
{ACAD_REACTORS
330
458
102
}
330
458
100
DictionaryVariables
280
     0
  1
1:1
  0
DICTIONARYVAR
  5
45E
102
{ACAD_REACTORS
330
458
102
}
330
458
100
DictionaryVariables
280
     0
  1
Standard
  0
DICTIONARYVAR
  5
45D
102
{ACAD_REACTORS
330
458
102
}
330
458
100
DictionaryVariables
280
     0
  1
Standard
  0
XRECORD
  5
3EB
102
{ACAD_REACTORS
330
3E9
102
}
330
3E9
100
AcDbXrecord
280
     1
1000
#ffffff
  0
XRECORD
  5
3EC
102
{ACAD_REACTORS
330
3E9
102
}
330
3E9
100
AcDbXrecord
280
     1
1000
FullColor
  0
XRECORD
  5
3ED
102
{ACAD_REACTORS
330
3E9
102
}
330
3E9
100
AcDbXrecord
280
     1
290
     1
  0
XRECORD
  5
3EE
102
{ACAD_REACTORS
330
3E9
102
}
330
3E9
100
AcDbXrecord
280
     1
290
     1
  0
XRECORD
  5
3EF
102
{ACAD_REACTORS
330
3E9
102
}
330
3E9
100
AcDbXrecord
280
     1
290
     1
  0
XRECORD
  5
3F0
102
{ACAD_REACTORS
330
3E9
102
}
330
3E9
100
AcDbXrecord
280
     1
290
     1
  0
XRECORD
  5
3F1
102
{ACAD_REACTORS
330
3E9
102
}
330
3E9
100
AcDbXrecord
280
     1
1000
auto
  0
XRECORD
  5
3F2
102
{ACAD_REACTORS
330
3E9
102
}
330
3E9
100
AcDbXrecord
280
     1
1000
auto
  0
XRECORD
  5
3F3
102
{ACAD_REACTORS
330
3E9
102
}
330
3E9
100
AcDbXrecord
280
     1
1000
auto
  0
XRECORD
  5
3F4
102
{ACAD_REACTORS
330
3E9
102
}
330
3E9
100
AcDbXrecord
280
     1
1000
auto
  0
XRECORD
  5
3F5
102
{ACAD_REACTORS
330
3E9
102
}
330
3E9
100
AcDbXrecord
280
     1
1000
auto
  0
XRECORD
  5
3F6
102
{ACAD_REACTORS
330
3E9
102
}
330
3E9
100
AcDbXrecord
280
     1
1000
auto
  0
XRECORD
  5
3F7
102
{ACAD_REACTORS
330
3E9
102
}
330
3E9
100
AcDbXrecord
280
     1
1000
auto
  0
XRECORD
  5
3F8
102
{ACAD_REACTORS
330
3E9
102
}
330
3E9
100
AcDbXrecord
280
     1
1000
auto
  0
XRECORD
  5
3F9
102
{ACAD_REACTORS
330
3E9
102
}
330
3E9
100
AcDbXrecord
280
     1
290
     0
  0
XRECORD
  5
3FA
102
{ACAD_REACTORS
330
3E9
102
}
330
3E9
100
AcDbXrecord
280
     1
290
     0
  0
XRECORD
  5
3FB
102
{ACAD_REACTORS
330
3E9
102
}
330
3E9
100
AcDbXrecord
280
     1
290
     0
  0
XRECORD
  5
3FC
102
{ACAD_REACTORS
330
3E9
102
}
330
3E9
100
AcDbXrecord
280
     1
290
     0
  0
XRECORD
  5
3FD
102
{ACAD_REACTORS
330
3E9
102
}
330
3E9
100
AcDbXrecord
280
     1
 90
        0
  0
XRECORD
  5
3FE
102
{ACAD_REACTORS
330
3E9
102
}
330
3E9
100
AcDbXrecord
280
     1
 90
        0
  0
XRECORD
  5
3FF
102
{ACAD_REACTORS
330
3E9
102
}
330
3E9
100
AcDbXrecord
280
     1
 90
        0
  0
XRECORD
  5
400
102
{ACAD_REACTORS
330
3E9
102
}
330
3E9
100
AcDbXrecord
280
     1
 90
        0
  0
XRECORD
  5
401
102
{ACAD_REACTORS
330
3E9
102
}
330
3E9
100
AcDbXrecord
280
     1
1000
auto
  0
XRECORD
  5
402
102
{ACAD_REACTORS
330
3E9
102
}
330
3E9
100
AcDbXrecord
280
     1
1000
auto
  0
XRECORD
  5
403
102
{ACAD_REACTORS
330
3E9
102
}
330
3E9
100
AcDbXrecord
280
     1
1000
auto
  0
XRECORD
  5
404
102
{ACAD_REACTORS
330
3E9
102
}
330
3E9
100
AcDbXrecord
280
     1
1000
auto
  0
XRECORD
  5
405
102
{ACAD_REACTORS
330
3E9
102
}
330
3E9
100
AcDbXrecord
280
     1
1000
auto
  0
XRECORD
  5
406
102
{ACAD_REACTORS
330
3E9
102
}
330
3E9
100
AcDbXrecord
280
     1
1000
auto
  0
XRECORD
  5
407
102
{ACAD_REACTORS
330
3E9
102
}
330
3E9
100
AcDbXrecord
280
     1
1000
auto
  0
XRECORD
  5
408
102
{ACAD_REACTORS
330
3E9
102
}
330
3E9
100
AcDbXrecord
280
     1
1000
auto
  0
XRECORD
  5
409
102
{ACAD_REACTORS
330
3E9
102
}
330
3E9
100
AcDbXrecord
280
     1
 90
        1
  0
XRECORD
  5
40A
102
{ACAD_REACTORS
330
3E9
102
}
330
3E9
100
AcDbXrecord
280
     1
 40
10.0
  0
XRECORD
  5
40B
102
{ACAD_REACTORS
330
3E9
102
}
330
3E9
100
AcDbXrecord
280
     1
 40
10.0
  0
XRECORD
  5
40C
102
{ACAD_REACTORS
330
3E9
102
}
330
3E9
100
AcDbXrecord
280
     1
 40
10.0
  0
XRECORD
  5
40D
102
{ACAD_REACTORS
330
3E9
102
}
330
3E9
100
AcDbXrecord
280
     1
 40
10.0
  0
XRECORD
  5
40E
102
{ACAD_REACTORS
330
3E9
102
}
330
3E9
100
AcDbXrecord
280
     1
290
     0
  0
XRECORD
  5
40F
102
{ACAD_REACTORS
330
3E9
102
}
330
3E9
100
AcDbXrecord
280
     1
 90
        1
  0
XRECORD
  5
410
102
{ACAD_REACTORS
330
3E9
102
}
330
3E9
100
AcDbXrecord
280
     1
 40
0.0
  0
XRECORD
  5
411
102
{ACAD_REACTORS
330
3E9
102
}
330
3E9
100
AcDbXrecord
280
     1
 40
0.0
  0
XRECORD
  5
412
102
{ACAD_REACTORS
330
3E9
102
}
330
3E9
100
AcDbXrecord
280
     1
1000
Portrait
  0
XRECORD
  5
413
102
{ACAD_REACTORS
330
3E9
102
}
330
3E9
100
AcDbXrecord
280
     1
 40
297.0
  0
XRECORD
  5
414
102
{ACAD_REACTORS
330
3E9
102
}
330
3E9
100
AcDbXrecord
280
     1
 40
210.0
  0
XRECORD
  5
415
102
{ACAD_REACTORS
330
3E9
102
}
330
3E9
100
AcDbXrecord
280
     1
1000
1:1
  0
XRECORD
  5
416
102
{ACAD_REACTORS
330
3E9
102
}
330
3E9
100
AcDbXrecord
280
     1
290
     1
  0
XRECORD
  5
417
102
{ACAD_REACTORS
330
3E9
102
}
330
3E9
100
AcDbXrecord
280
     1
1000
3.12.1
  0
XRECORD
  5
418
102
{ACAD_REACTORS
330
3E9
102
}
330
3E9
100
AcDbXrecord
280
     1
 90
        4
  0
DICTIONARY
  5
45A
330
3E4
100
AcDbDictionary
280
     1
281
     1
  3
ACAD_ROUNDTRIP_2008_TABLESTYLE_CELLSTYLEMAP
360
45B
  0
CELLSTYLEMAP
  5
45B
102
{ACAD_REACTORS
330
45A
102
}
330
45A
100
AcDbCellStyleMap
 90
        3
300
CELLSTYLE
  1
TABLEFORMAT_BEGIN
 90
        5
170
     1
 91
        0
 92
    32768
 62
   257
 93
        1
300
CONTENTFORMAT
  1
CONTENTFORMAT_BEGIN
 90
        0
 91
        0
 92
        4
 93
        0
300

 40
0.0
140
1.0
 94
        5
 62
     0
340
38C
144
0.25
309
CONTENTFORMAT_END
171
     1
301
MARGIN
  1
CELLMARGIN_BEGIN
 40
0.06
 40
0.06
 40
0.06
 40
0.06
 40
0.06
 40
0.06
309
CELLMARGIN_END
 94
        6
 95
        1
302
GRIDFORMAT
  1
GRIDFORMAT_BEGIN
 90
        0
 91
        1
 62
     0
 92
       -2
340
38E
 93
        0
 40
0.045
309
GRIDFORMAT_END
 95
        2
302
GRIDFORMAT
  1
GRIDFORMAT_BEGIN
 90
        0
 91
        1
 62
     0
 92
       -2
340
38E
 93
        0
 40
0.045
309
GRIDFORMAT_END
 95
        4
302
GRIDFORMAT
  1
GRIDFORMAT_BEGIN
 90
        0
 91
        1
 62
     0
 92
       -2
340
38E
 93
        0
 40
0.045
309
GRIDFORMAT_END
 95
        8
302
GRIDFORMAT
  1
GRIDFORMAT_BEGIN
 90
        0
 91
        1
 62
     0
 92
       -2
340
38E
 93
        0
 40
0.045
309
GRIDFORMAT_END
 95
       16
302
GRIDFORMAT
  1
GRIDFORMAT_BEGIN
 90
        0
 91
        1
 62
     0
 92
       -2
340
38E
 93
        0
 40
0.045
309
GRIDFORMAT_END
 95
       32
302
GRIDFORMAT
  1
GRIDFORMAT_BEGIN
 90
        0
 91
        1
 62
     0
 92
       -2
340
38E
 93
        0
 40
0.045
309
GRIDFORMAT_END
309
TABLEFORMAT_END
  1
CELLSTYLE_BEGIN
 90
        1
 91
        1
300
_TITLE
309
CELLSTYLE_END
300
CELLSTYLE
  1
TABLEFORMAT_BEGIN
 90
        5
170
     1
 91
        0
 92
        0
 62
   257
 93
        1
300
CONTENTFORMAT
  1
CONTENTFORMAT_BEGIN
 90
        0
 91
        0
 92
        4
 93
        0
300

 40
0.0
140
1.0
 94
        5
 62
     0
340
38C
144
0.18
309
CONTENTFORMAT_END
171
     1
301
MARGIN
  1
CELLMARGIN_BEGIN
 40
0.06
 40
0.06
 40
0.06
 40
0.06
 40
0.06
 40
0.06
309
CELLMARGIN_END
 94
        6
 95
        1
302
GRIDFORMAT
  1
GRIDFORMAT_BEGIN
 90
        0
 91
        1
 62
     0
 92
       -2
340
38E
 93
        0
 40
0.045
309
GRIDFORMAT_END
 95
        2
302
GRIDFORMAT
  1
GRIDFORMAT_BEGIN
 90
        0
 91
        1
 62
     0
 92
       -2
340
38E
 93
        0
 40
0.045
309
GRIDFORMAT_END
 95
        4
302
GRIDFORMAT
  1
GRIDFORMAT_BEGIN
 90
        0
 91
        1
 62
     0
 92
       -2
340
38E
 93
        0
 40
0.045
309
GRIDFORMAT_END
 95
        8
302
GRIDFORMAT
  1
GRIDFORMAT_BEGIN
 90
        0
 91
        1
 62
     0
 92
       -2
340
38E
 93
        0
 40
0.045
309
GRIDFORMAT_END
 95
       16
302
GRIDFORMAT
  1
GRIDFORMAT_BEGIN
 90
        0
 91
        1
 62
     0
 92
       -2
340
38E
 93
        0
 40
0.045
309
GRIDFORMAT_END
 95
       32
302
GRIDFORMAT
  1
GRIDFORMAT_BEGIN
 90
        0
 91
        1
 62
     0
 92
       -2
340
38E
 93
        0
 40
0.045
309
GRIDFORMAT_END
309
TABLEFORMAT_END
  1
CELLSTYLE_BEGIN
 90
        2
 91
        1
300
_HEADER
309
CELLSTYLE_END
300
CELLSTYLE
  1
TABLEFORMAT_BEGIN
 90
        5
170
     1
 91
        0
 92
        0
 62
   257
 93
        1
300
CONTENTFORMAT
  1
CONTENTFORMAT_BEGIN
 90
        0
 91
        0
 92
        4
 93
        0
300

 40
0.0
140
1.0
 94
        2
 62
     0
340
38C
144
0.18
309
CONTENTFORMAT_END
171
     1
301
MARGIN
  1
CELLMARGIN_BEGIN
 40
0.06
 40
0.06
 40
0.06
 40
0.06
 40
0.06
 40
0.06
309
CELLMARGIN_END
 94
        6
 95
        1
302
GRIDFORMAT
  1
GRIDFORMAT_BEGIN
 90
        0
 91
        1
 62
     0
 92
       -2
340
38E
 93
        0
 40
0.045
309
GRIDFORMAT_END
 95
        2
302
GRIDFORMAT
  1
GRIDFORMAT_BEGIN
 90
        0
 91
        1
 62
     0
 92
       -2
340
38E
 93
        0
 40
0.045
309
GRIDFORMAT_END
 95
        4
302
GRIDFORMAT
  1
GRIDFORMAT_BEGIN
 90
        0
 91
        1
 62
     0
 92
       -2
340
38E
 93
        0
 40
0.045
309
GRIDFORMAT_END
 95
        8
302
GRIDFORMAT
  1
GRIDFORMAT_BEGIN
 90
        0
 91
        1
 62
     0
 92
       -2
340
38E
 93
        0
 40
0.045
309
GRIDFORMAT_END
 95
       16
302
GRIDFORMAT
  1
GRIDFORMAT_BEGIN
 90
        0
 91
        1
 62
     0
 92
       -2
340
38E
 93
        0
 40
0.045
309
GRIDFORMAT_END
 95
       32
302
GRIDFORMAT
  1
GRIDFORMAT_BEGIN
 90
        0
 91
        1
 62
     0
 92
       -2
340
38E
 93
        0
 40
0.045
309
GRIDFORMAT_END
309
TABLEFORMAT_END
  1
CELLSTYLE_BEGIN
 90
        3
 91
        2
300
_DATA
309
CELLSTYLE_END
  0
ENDSEC
  0
EOF
